  0
SECTION
  2
HEADER
  9
$ACADVER
  1
AC1032
  9
$ACADMAINTVER
 90
       55
  9
$DWGCODEPAGE
  3
ANSI_932
  9
$LASTSAVEDBY
  1
client05
  9
$REQUIREDVERSIONS
160
                 0
  9
$INSBASE
 10
0.0
 20
0.0
 30
0.0
  9
$EXTMIN
 10
-55.57795319133683
 20
-53.14417177914112
 30
0.0
  9
$EXTMAX
 10
244.476239151039
 20
336.8453186011809
 30
0.0
  9
$LIMMIN
 10
0.0
 20
0.0
  9
$LIMMAX
 10
297.0
 20
210.0
  9
$ORTHOMODE
 70
     0
  9
$REGENMODE
 70
     1
  9
$FILLMODE
 70
     1
  9
$QTEXTMODE
 70
     0
  9
$MIRRTEXT
 70
     1
  9
$LTSCALE
 40
0.25
  9
$ATTMODE
 70
     1
  9
$TEXTSIZE
 40
5.0
  9
$TRACEWID
 40
0.05
  9
$TEXTSTYLE
  7
Standard
  9
$CLAYER
  8
0
  9
$CELTYPE
  6
ByLayer
  9
$CECOLOR
 62
   256
  9
$CELTSCALE
 40
1.0
  9
$DISPSILH
 70
     0
  9
$DIMSCALE
 40
1.0
  9
$DIMASZ
 40
4.0
  9
$DIMEXO
 40
2.0
  9
$DIMDLI
 40
10.0
  9
$DIMRND
 40
0.0
  9
$DIMDLE
 40
0.0
  9
$DIMEXE
 40
2.0
  9
$DIMTP
 40
0.0
  9
$DIMTM
 40
0.0
  9
$DIMTXT
 40
3.5
  9
$DIMCEN
 40
0.09
  9
$DIMTSZ
 40
0.0
  9
$DIMTOL
 70
     0
  9
$DIMLIM
 70
     0
  9
$DIMTIH
 70
     0
  9
$DIMTOH
 70
     0
  9
$DIMSE1
 70
     0
  9
$DIMSE2
 70
     0
  9
$DIMTAD
 70
     3
  9
$DIMZIN
 70
     8
  9
$DIMBLK
  1

  9
$DIMASO
 70
     1
  9
$DIMSHO
 70
     1
  9
$DIMPOST
  1

  9
$DIMAPOST
  1

  9
$DIMALT
 70
     0
  9
$DIMALTD
 70
     2
  9
$DIMALTF
 40
25.4
  9
$DIMLFAC
 40
1.0
  9
$DIMTOFL
 70
     1
  9
$DIMTVP
 40
0.7
  9
$DIMTIX
 70
     0
  9
$DIMSOXD
 70
     0
  9
$DIMSAH
 70
     0
  9
$DIMBLK1
  1

  9
$DIMBLK2
  1

  9
$DIMSTYLE
  2
Standard
  9
$DIMCLRD
 70
     0
  9
$DIMCLRE
 70
     0
  9
$DIMCLRT
 70
     0
  9
$DIMTFAC
 40
0.5
  9
$DIMGAP
 40
0.09
  9
$DIMJUST
 70
     0
  9
$DIMSD1
 70
     0
  9
$DIMSD2
 70
     0
  9
$DIMTOLJ
 70
     1
  9
$DIMTZIN
 70
     8
  9
$DIMALTZ
 70
     0
  9
$DIMALTTZ
 70
     0
  9
$DIMUPT
 70
     1
  9
$DIMDEC
 70
     2
  9
$DIMTDEC
 70
     4
  9
$DIMALTU
 70
     2
  9
$DIMALTTD
 70
     2
  9
$DIMTXSTY
  7
Standard
  9
$DIMAUNIT
 70
     0
  9
$DIMADEC
 70
     0
  9
$DIMALTRND
 40
0.0
  9
$DIMAZIN
 70
     0
  9
$DIMDSEP
 70
    46
  9
$DIMATFIT
 70
     2
  9
$DIMFRAC
 70
     0
  9
$DIMLDRBLK
  1

  9
$DIMLUNIT
 70
     2
  9
$DIMLWD
 70
    -2
  9
$DIMLWE
 70
    -2
  9
$DIMTMOVE
 70
     2
  9
$DIMFXL
 40
1.0
  9
$DIMFXLON
 70
     0
  9
$DIMJOGANG
 40
0.7853981633974483
  9
$DIMTFILL
 70
     0
  9
$DIMTFILLCLR
 70
     0
  9
$DIMARCSYM
 70
     0
  9
$DIMLTYPE
  6

  9
$DIMLTEX1
  6

  9
$DIMLTEX2
  6

  9
$DIMTXTDIRECTION
 70
     0
  9
$LUNITS
 70
     2
  9
$LUPREC
 70
     4
  9
$SKETCHINC
 40
0.1
  9
$FILLETRAD
 40
0.5
  9
$AUNITS
 70
     0
  9
$AUPREC
 70
     0
  9
$MENU
  1
.
  9
$ELEVATION
 40
0.0
  9
$PELEVATION
 40
0.0
  9
$THICKNESS
 40
0.0
  9
$LIMCHECK
 70
     0
  9
$CHAMFERA
 40
0.0
  9
$CHAMFERB
 40
0.0
  9
$CHAMFERC
 40
0.0
  9
$CHAMFERD
 40
0.0
  9
$SKPOLY
 70
     0
  9
$TDCREATE
 40
2459817.939583333
  9
$TDUCREATE
 40
2459817.564583333
  9
$TDUPDATE
 40
2459817.564594572
  9
$TDUUPDATE
 40
2459817.189594572
  9
$TDINDWG
 40
0.0000000116
  9
$TDUSRTIMER
 40
0.0000000116
  9
$USRTIMER
 70
     1
  9
$ANGBASE
 50
0.0
  9
$ANGDIR
 70
     0
  9
$PDMODE
 70
     0
  9
$PDSIZE
 40
0.0
  9
$PLINEWID
 40
0.0
  9
$SPLFRAME
 70
     0
  9
$SPLINETYPE
 70
     6
  9
$SPLINESEGS
 70
     8
  9
$HANDSEED
  5
52E
  9
$SURFTAB1
 70
     6
  9
$SURFTAB2
 70
     6
  9
$SURFTYPE
 70
     6
  9
$SURFU
 70
     6
  9
$SURFV
 70
     6
  9
$UCSBASE
  2

  9
$UCSNAME
  2

  9
$UCSORG
 10
0.0
 20
0.0
 30
0.0
  9
$UCSXDIR
 10
1.0
 20
0.0
 30
0.0
  9
$UCSYDIR
 10
0.0
 20
1.0
 30
0.0
  9
$UCSORTHOREF
  2

  9
$UCSORTHOVIEW
 70
     0
  9
$UCSORGTOP
 10
0.0
 20
0.0
 30
0.0
  9
$UCSORGBOTTOM
 10
0.0
 20
0.0
 30
0.0
  9
$UCSORGLEFT
 10
0.0
 20
0.0
 30
0.0
  9
$UCSORGRIGHT
 10
0.0
 20
0.0
 30
0.0
  9
$UCSORGFRONT
 10
0.0
 20
0.0
 30
0.0
  9
$UCSORGBACK
 10
0.0
 20
0.0
 30
0.0
  9
$PUCSBASE
  2

  9
$PUCSNAME
  2

  9
$PUCSORG
 10
0.0
 20
0.0
 30
0.0
  9
$PUCSXDIR
 10
1.0
 20
0.0
 30
0.0
  9
$PUCSYDIR
 10
0.0
 20
1.0
 30
0.0
  9
$PUCSORTHOREF
  2

  9
$PUCSORTHOVIEW
 70
     0
  9
$PUCSORGTOP
 10
0.0
 20
0.0
 30
0.0
  9
$PUCSORGBOTTOM
 10
0.0
 20
0.0
 30
0.0
  9
$PUCSORGLEFT
 10
0.0
 20
0.0
 30
0.0
  9
$PUCSORGRIGHT
 10
0.0
 20
0.0
 30
0.0
  9
$PUCSORGFRONT
 10
0.0
 20
0.0
 30
0.0
  9
$PUCSORGBACK
 10
0.0
 20
0.0
 30
0.0
  9
$USERI1
 70
     0
  9
$USERI2
 70
     0
  9
$USERI3
 70
     0
  9
$USERI4
 70
     0
  9
$USERI5
 70
     0
  9
$USERR1
 40
0.0
  9
$USERR2
 40
0.0
  9
$USERR3
 40
0.0
  9
$USERR4
 40
0.0
  9
$USERR5
 40
0.0
  9
$WORLDVIEW
 70
     1
  9
$SHADEDGE
 70
     3
  9
$SHADEDIF
 70
    70
  9
$TILEMODE
 70
     1
  9
$MAXACTVP
 70
    64
  9
$PINSBASE
 10
0.0
 20
0.0
 30
0.0
  9
$PLIMCHECK
 70
     0
  9
$PEXTMIN
 10
0.0
 20
0.0
 30
0.0
  9
$PEXTMAX
 10
297.0
 20
210.0
 30
0.0
  9
$PLIMMIN
 10
0.0
 20
0.0
  9
$PLIMMAX
 10
297.0
 20
210.0
  9
$UNITMODE
 70
     0
  9
$VISRETAIN
 70
     1
  9
$PLINEGEN
 70
     0
  9
$PSLTSCALE
 70
     1
  9
$TREEDEPTH
 70
  3020
  9
$CMLSTYLE
  2
Standard
  9
$CMLJUST
 70
     0
  9
$CMLSCALE
 40
1.0
  9
$PROXYGRAPHICS
 70
     1
  9
$MEASUREMENT
 70
     1
  9
$CELWEIGHT
370
    -1
  9
$ENDCAPS
280
     0
  9
$JOINSTYLE
280
     0
  9
$LWDISPLAY
290
     0
  9
$INSUNITS
 70
     4
  9
$HYPERLINKBASE
  1

  9
$STYLESHEET
  1

  9
$XEDIT
290
     1
  9
$CEPSNTYPE
380
     0
  9
$PSTYLEMODE
290
     1
  9
$FINGERPRINTGUID
  2
{c917804f-89ab-4d73-b6ee-804e303c9058}
  9
$VERSIONGUID
  2
{FAEB1C32-E019-11D5-929B-00C0DF256EC4}
  9
$EXTNAMES
290
     1
  9
$PSVPSCALE
 40
0.0
  9
$OLESTARTUP
290
     0
  9
$SORTENTS
280
   127
  9
$INDEXCTL
280
     0
  9
$HIDETEXT
280
     1
  9
$XCLIPFRAME
280
     2
  9
$HALOGAP
280
     0
  9
$OBSCOLOR
 70
   257
  9
$OBSLTYPE
280
     0
  9
$INTERSECTIONDISPLAY
280
     0
  9
$INTERSECTIONCOLOR
 70
   257
  9
$DIMASSOC
280
     1
  9
$PROJECTNAME
  1

  9
$CAMERADISPLAY
290
     0
  9
$LENSLENGTH
 40
50.0
  9
$CAMERAHEIGHT
 40
0.0
  9
$STEPSPERSEC
 40
2.0
  9
$STEPSIZE
 40
6.0
  9
$3DDWFPREC
 40
2.0
  9
$PSOLWIDTH
 40
0.25
  9
$PSOLHEIGHT
 40
4.0
  9
$LOFTANG1
 40
1.570796326794897
  9
$LOFTANG2
 40
1.570796326794897
  9
$LOFTMAG1
 40
0.0
  9
$LOFTMAG2
 40
0.0
  9
$LOFTPARAM
 70
     7
  9
$LOFTNORMALS
280
     1
  9
$LATITUDE
 40
37.795
  9
$LONGITUDE
 40
-122.394
  9
$NORTHDIRECTION
 40
0.0
  9
$TIMEZONE
 70
 -8000
  9
$LIGHTGLYPHDISPLAY
280
     1
  9
$TILEMODELIGHTSYNCH
280
     1
  9
$CMATERIAL
347
44
  9
$SOLIDHIST
280
     0
  9
$SHOWHIST
280
     1
  9
$DWFFRAME
280
     2
  9
$DGNFRAME
280
     2
  9
$REALWORLDSCALE
290
     1
  9
$INTERFERECOLOR
 62
   256
  9
$CSHADOW
280
     0
  9
$SHADOWPLANELOCATION
 40
0.0
  0
ENDSEC
  0
SECTION
  2
CLASSES
  0
CLASS
  1
ACDBDICTIONARYWDFLT
  2
AcDbDictionaryWithDefault
  3
ObjectDBX Classes
 90
        0
 91
        3
280
     0
281
     0
  0
CLASS
  1
VISUALSTYLE
  2
AcDbVisualStyle
  3
ObjectDBX Classes
 90
     4095
 91
        3
280
     0
281
     0
  0
CLASS
  1
MATERIAL
  2
AcDbMaterial
  3
ObjectDBX Classes
 90
     1153
 91
        3
280
     0
281
     0
  0
CLASS
  1
SCALE
  2
AcDbScale
  3
ObjectDBX Classes
 90
     1153
 91
        3
280
     0
281
     0
  0
CLASS
  1
TABLESTYLE
  2
AcDbTableStyle
  3
ObjectDBX Classes
 90
     4095
 91
        3
280
     0
281
     0
  0
CLASS
  1
MLEADERSTYLE
  2
AcDbMLeaderStyle
  3
ACDB_MLEADERSTYLE_CLASS
 90
     4095
 91
        3
280
     0
281
     0
  0
CLASS
  1
SUN
  2
AcDbSun
  3
SCENEOE
 90
     1153
 91
        3
280
     0
281
     0
  0
CLASS
  1
DICTIONARYVAR
  2
AcDbDictionaryVar
  3
ObjectDBX Classes
 90
        0
 91
        3
280
     0
281
     0
  0
CLASS
  1
CELLSTYLEMAP
  2
AcDbCellStyleMap
  3
ObjectDBX Classes
 90
     1152
 91
        3
280
     0
281
     0
  0
ENDSEC
  0
SECTION
  2
TABLES
  0
TABLE
  2
VPORT
  5
8
330
0
100
AcDbSymbolTable
 70
     1
  0
VPORT
  5
29
330
8
100
AcDbSymbolTableRecord
100
AcDbViewportTableRecord
  2
*Active
 70
     0
 10
0.0
 20
0.0
 11
1.0
 21
1.0
 12
10.42990654205607
 22
4.5
 13
0.0
 23
0.0
 14
0.5
 24
0.5
 15
0.5
 25
0.5
 16
0.0
 26
0.0
 36
1.0
 17
0.0
 27
0.0
 37
0.0
 40
9.0
 41
1.972972972850329
 42
50.0
 43
0.0
 44
0.0
 50
0.0
 51
0.0
 71
     0
 72
   100
 73
     1
 74
     3
 75
     0
 76
     0
 77
     0
 78
     0
281
     0
 65
     1
110
0.0
120
0.0
130
0.0
111
1.0
121
0.0
131
0.0
112
0.0
122
1.0
132
0.0
 79
     0
146
0.0
348
2F
 60
     3
 61
     5
292
     1
282
     1
141
0.0
142
0.0
 63
   250
361
6D
  0
ENDTAB
  0
TABLE
  2
LTYPE
  5
5
330
0
100
AcDbSymbolTable
 70
     9
  0
LTYPE
  5
14
330
5
100
AcDbSymbolTableRecord
100
AcDbLinetypeTableRecord
  2
ByBlock
 70
     0
  3

 72
    65
 73
     0
 40
0.0
  0
LTYPE
  5
15
330
5
100
AcDbSymbolTableRecord
100
AcDbLinetypeTableRecord
  2
ByLayer
 70
     0
  3

 72
    65
 73
     0
 40
0.0
  0
LTYPE
  5
16
330
5
100
AcDbSymbolTableRecord
100
AcDbLinetypeTableRecord
  2
Continuous
 70
     0
  3
Solid line
 72
    65
 73
     0
 40
0.0
  0
LTYPE
  5
BC
330
5
100
AcDbSymbolTableRecord
100
AcDbLinetypeTableRecord
  2
DOT
 70
     0
  3
DOT
 72
    65
 73
     2
 40
4.0
 49
6.0
 74
     0
 49
-2.0
 74
     0
  0
LTYPE
  5
BD
330
5
100
AcDbSymbolTableRecord
100
AcDbLinetypeTableRecord
  2
HIDDEN
 70
     0
  3
HIDDEN
 72
    65
 73
     2
 40
4.2
 49
8.4
 74
     0
 49
-4.2
 74
     0
  0
LTYPE
  5
BE
330
5
100
AcDbSymbolTableRecord
100
AcDbLinetypeTableRecord
  2
DASHDOT
 70
     0
  3
DASHDOT
 72
    65
 73
     4
 40
14.5
 49
30.0
 74
     0
 49
-9.0
 74
     0
 49
2.5
 74
     0
 49
-9.0
 74
     0
  0
LTYPE
  5
BF
330
5
100
AcDbSymbolTableRecord
100
AcDbLinetypeTableRecord
  2
PHANTOM
 70
     0
  3
PHANTOM
 72
    65
 73
     6
 40
12.0
 49
30.0
 74
     0
 49
-9.0
 74
     0
 49
2.5
 74
     0
 49
-5.0
 74
     0
 49
2.5
 74
     0
 49
-9.0
 74
     0
  0
LTYPE
  5
C0
330
5
100
AcDbSymbolTableRecord
100
AcDbLinetypeTableRecord
  2
ACAD_ISO14W100
 70
     0
  3
ACAD_ISO14W100
 72
    65
 73
     8
 40
1.5
 49
12.0
 74
     0
 49
-3.0
 74
     0
 49
0.5
 74
     0
 49
-3.0
 74
     0
 49
0.5
 74
     0
 49
-3.0
 74
     0
 49
0.5
 74
     0
 49
-3.0
 74
     0
  0
LTYPE
  5
C1
330
5
100
AcDbSymbolTableRecord
100
AcDbLinetypeTableRecord
  2
ACAD_ISO06W100
 70
     0
  3
ACAD_ISO06W100
 72
    65
 73
     8
 40
13.5
 49
24.0
 74
     0
 49
-3.0
 74
     0
 49
0.5
 74
     0
 49
-3.0
 74
     0
 49
0.5
 74
     0
 49
-3.0
 74
     0
 49
0.5
 74
     0
 49
-3.0
 74
     0
  0
LTYPE
  5
C2
330
5
100
AcDbSymbolTableRecord
100
AcDbLinetypeTableRecord
  2
ACAD_ISO11W100
 70
     0
  3
ACAD_ISO11W100
 72
    65
 73
     6
 40
15.5
 49
12.0
 74
     0
 49
-3.0
 74
     0
 49
12.0
 74
     0
 49
-3.0
 74
     0
 49
0.5
 74
     0
 49
-3.0
 74
     0
  0
LTYPE
  5
C3
330
5
100
AcDbSymbolTableRecord
100
AcDbLinetypeTableRecord
  2
ACAD_ISO13W100
 70
     0
  3
ACAD_ISO13W100
 72
    65
 73
     8
 40
13.0
 49
12.0
 74
     0
 49
-3.0
 74
     0
 49
12.0
 74
     0
 49
-3.0
 74
     0
 49
0.5
 74
     0
 49
-3.0
 74
     0
 49
0.5
 74
     0
 49
-3.0
 74
     0
  0
ENDTAB
  0
TABLE
  2
LAYER
  5
2
330
0
100
AcDbSymbolTable
 70
    23
  0
LAYER
  5
10
330
2
100
AcDbSymbolTableRecord
100
AcDbLayerTableRecord
  2
0
 70
     0
 62
     7
  6
Continuous
370
    -3
390
F
347
46
348
0
  0
LAYER
  5
C4
330
2
100
AcDbSymbolTableRecord
100
AcDbLayerTableRecord
  2
1
 70
     0
 62
     7
  6
Continuous
370
     9
390
F
347
46
348
0
  0
LAYER
  5
C5
330
2
100
AcDbSymbolTableRecord
100
AcDbLayerTableRecord
  2
2
 70
     0
 62
   136
420
    32896
  6
Continuous
370
     9
390
F
347
46
348
0
  0
LAYER
  5
C6
330
2
100
AcDbSymbolTableRecord
100
AcDbLayerTableRecord
  2
3
 70
     0
 62
   216
420
  8388736
  6
Continuous
370
     9
390
F
347
46
348
0
  0
LAYER
  5
C7
330
2
100
AcDbSymbolTableRecord
100
AcDbLayerTableRecord
  2
4
 70
     0
 62
    56
420
  8421376
  6
Continuous
370
     9
390
F
347
46
348
0
  0
LAYER
  5
C8
330
2
100
AcDbSymbolTableRecord
100
AcDbLayerTableRecord
  2
5
 70
     0
 62
    96
420
    32768
  6
Continuous
370
     9
390
F
347
46
348
0
  0
LAYER
  5
C9
330
2
100
AcDbSymbolTableRecord
100
AcDbLayerTableRecord
  2
6
 70
     0
 62
    16
420
  8388608
  6
Continuous
370
     9
390
F
347
46
348
0
  0
LAYER
  5
CA
330
2
100
AcDbSymbolTableRecord
100
AcDbLayerTableRecord
  2
7
 70
     0
 62
     4
  6
Continuous
370
     9
390
F
347
46
348
0
  0
LAYER
  5
CB
330
2
100
AcDbSymbolTableRecord
100
AcDbLayerTableRecord
  2
8
 70
     0
 62
     6
  6
Continuous
370
     9
390
F
347
46
348
0
  0
LAYER
  5
CC
330
2
100
AcDbSymbolTableRecord
100
AcDbLayerTableRecord
  2
9
 70
     0
 62
     2
  6
Continuous
370
     9
390
F
347
46
348
0
  0
LAYER
  5
CD
330
2
100
AcDbSymbolTableRecord
100
AcDbLayerTableRecord
  2
10
 70
     0
 62
     3
  6
Continuous
370
     9
390
F
347
46
348
0
  0
LAYER
  5
CE
330
2
100
AcDbSymbolTableRecord
100
AcDbLayerTableRecord
  2
11
 70
     0
 62
     8
420
  8421504
  6
Continuous
370
     9
390
F
347
46
348
0
  0
LAYER
  5
CF
330
2
100
AcDbSymbolTableRecord
100
AcDbLayerTableRecord
  2
12
 70
     0
 62
   138
420
    20560
  6
Continuous
370
     9
390
F
347
46
348
0
  0
LAYER
  5
D0
330
2
100
AcDbSymbolTableRecord
100
AcDbLayerTableRecord
  2
13
 70
     0
 62
   218
420
  5242960
  6
Continuous
370
     9
390
F
347
46
348
0
  0
LAYER
  5
D1
330
2
100
AcDbSymbolTableRecord
100
AcDbLayerTableRecord
  2
14
 70
     0
 62
    58
420
  5263360
  6
Continuous
370
     9
390
F
347
46
348
0
  0
LAYER
  5
D2
330
2
100
AcDbSymbolTableRecord
100
AcDbLayerTableRecord
  2
15
 70
     0
 62
    98
420
    20480
  6
Continuous
370
     9
390
F
347
46
348
0
  0
LAYER
  5
D3
330
2
100
AcDbSymbolTableRecord
100
AcDbLayerTableRecord
  2
16
 70
     0
 62
    18
420
  5242880
  6
Continuous
370
     9
390
F
347
46
348
0
  0
LAYER
  5
D4
330
2
100
AcDbSymbolTableRecord
100
AcDbLayerTableRecord
  2
17
 70
     0
 62
   132
420
    49344
  6
Continuous
370
     9
390
F
347
46
348
0
  0
LAYER
  5
D5
330
2
100
AcDbSymbolTableRecord
100
AcDbLayerTableRecord
  2
18
 70
     0
 62
   212
420
 12583104
  6
Continuous
370
     9
390
F
347
46
348
0
  0
LAYER
  5
D6
330
2
100
AcDbSymbolTableRecord
100
AcDbLayerTableRecord
  2
19
 70
     0
 62
    52
420
 12632064
  6
Continuous
370
     9
390
F
347
46
348
0
  0
LAYER
  5
D7
330
2
100
AcDbSymbolTableRecord
100
AcDbLayerTableRecord
  2
20
 70
     0
 62
   251
420
  5263440
  6
Continuous
370
     9
390
F
347
46
348
0
  0
LAYER
  5
D8
330
2
100
AcDbSymbolTableRecord
100
AcDbLayerTableRecord
  2
21
 70
     0
 62
     7
  6
Continuous
370
     9
390
F
347
46
348
0
  0
LAYER
  5
D9
330
2
100
AcDbSymbolTableRecord
100
AcDbLayerTableRecord
  2
101
 70
     0
 62
     7
  6
Continuous
370
     9
390
F
347
46
348
0
  0
ENDTAB
  0
TABLE
  2
STYLE
  5
3
330
0
100
AcDbSymbolTable
 70
     2
  0
STYLE
  5
11
330
3
100
AcDbSymbolTableRecord
100
AcDbTextStyleTableRecord
  2
Standard
 70
     0
 40
0.0
 41
1.0
 50
0.0
 71
     0
 42
5.0
  3
txt
  4
bigfont
  0
STYLE
  5
6F
330
3
100
AcDbSymbolTableRecord
100
AcDbTextStyleTableRecord
  2
T_STANDARD
 70
     4
 40
10.0
 41
1.0
 50
0.0
 71
     0
 42
5.0
  3
txt
  4
bigfont
1001
ACAD
1000

1071
      256
  0
ENDTAB
  0
TABLE
  2
VIEW
  5
6
330
0
100
AcDbSymbolTable
 70
     0
  0
ENDTAB
  0
TABLE
  2
UCS
  5
7
330
0
100
AcDbSymbolTable
 70
     0
  0
ENDTAB
  0
TABLE
  2
APPID
  5
9
330
0
100
AcDbSymbolTable
 70
     2
  0
APPID
  5
12
330
9
100
AcDbSymbolTableRecord
100
AcDbRegAppTableRecord
  2
ACAD
 70
     0
  0
APPID
  5
6E
330
9
100
AcDbSymbolTableRecord
100
AcDbRegAppTableRecord
  2
ODA
 70
     0
  0
ENDTAB
  0
TABLE
  2
DIMSTYLE
  5
A
330
0
100
AcDbSymbolTable
 70
     1
100
AcDbDimStyleTable
  0
DIMSTYLE
105
27
330
A
100
AcDbSymbolTableRecord
100
AcDbDimStyleTableRecord
  2
Standard
 70
     0
178
     0
340
11
  0
ENDTAB
  0
TABLE
  2
BLOCK_RECORD
  5
1
330
0
100
AcDbSymbolTable
 70
    16
  0
BLOCK_RECORD
  5
1F
330
1
100
AcDbSymbolTableRecord
100
AcDbBlockTableRecord
  2
*Model_Space
340
22
 70
     0
280
     1
281
     0
  0
BLOCK_RECORD
  5
1B
330
1
100
AcDbSymbolTableRecord
100
AcDbBlockTableRecord
  2
*Paper_Space
340
1E
 70
     0
280
     1
281
     0
  0
BLOCK_RECORD
  5
23
330
1
100
AcDbSymbolTableRecord
100
AcDbBlockTableRecord
  2
*Paper_Space0
340
26
 70
     0
280
     1
281
     0
  0
BLOCK_RECORD
  5
70
330
1
100
AcDbSymbolTableRecord
100
AcDbBlockTableRecord
  2
_ORIGIN
340
0
 70
     0
280
     1
281
     0
  0
BLOCK_RECORD
  5
75
330
1
100
AcDbSymbolTableRecord
100
AcDbBlockTableRecord
  2
_DOTBLANK
340
0
 70
     0
280
     1
281
     0
  0
BLOCK_RECORD
  5
7A
330
1
100
AcDbSymbolTableRecord
100
AcDbBlockTableRecord
  2
_DOT
340
0
 70
     0
280
     1
281
     0
  0
BLOCK_RECORD
  5
7F
330
1
100
AcDbSymbolTableRecord
100
AcDbBlockTableRecord
  2
_OPEN
340
0
 70
     0
280
     1
281
     0
  0
BLOCK_RECORD
  5
85
330
1
100
AcDbSymbolTableRecord
100
AcDbBlockTableRecord
  2
_CLOSED
340
0
 70
     0
280
     1
281
     0
  0
BLOCK_RECORD
  5
8C
330
1
100
AcDbSymbolTableRecord
100
AcDbBlockTableRecord
  2
_CLOSEDBLANK
340
0
 70
     0
280
     1
281
     0
  0
BLOCK_RECORD
  5
92
330
1
100
AcDbSymbolTableRecord
100
AcDbBlockTableRecord
  2
_ARROWFILLED
340
0
 70
     0
280
     1
281
     0
  0
BLOCK_RECORD
  5
96
330
1
100
AcDbSymbolTableRecord
100
AcDbBlockTableRecord
  2
_BOXBLANK
340
0
 70
     0
280
     1
281
     0
  0
BLOCK_RECORD
  5
9E
330
1
100
AcDbSymbolTableRecord
100
AcDbBlockTableRecord
  2
_BOXFILLED
340
0
 70
     0
280
     1
281
     0
  0
BLOCK_RECORD
  5
A3
330
1
100
AcDbSymbolTableRecord
100
AcDbBlockTableRecord
  2
_INTEGRAL
340
0
 70
     0
280
     1
281
     0
  0
BLOCK_RECORD
  5
A8
330
1
100
AcDbSymbolTableRecord
100
AcDbBlockTableRecord
  2
_OBLIQUE
340
0
 70
     0
280
     1
281
     0
  0
BLOCK_RECORD
  5
AC
330
1
100
AcDbSymbolTableRecord
100
AcDbBlockTableRecord
  2
_NONE
340
0
 70
     0
280
     1
281
     0
  0
BLOCK_RECORD
  5
AF
330
1
100
AcDbSymbolTableRecord
100
AcDbBlockTableRecord
  2
MARK_OPEN
340
0
 70
     0
280
     1
281
     0
  0
BLOCK_RECORD
  5
B4
330
1
100
AcDbSymbolTableRecord
100
AcDbBlockTableRecord
  2
MARK_ORIGIN
340
0
 70
     0
280
     1
281
     0
  0
BLOCK_RECORD
  5
B8
330
1
100
AcDbSymbolTableRecord
100
AcDbBlockTableRecord
  2
MARK_DOT
340
0
 70
     0
280
     1
281
     0
  0
ENDTAB
  0
ENDSEC
  0
SECTION
  2
BLOCKS
  0
BLOCK
  5
20
330
1F
100
AcDbEntity
  8
0
100
AcDbBlockBegin
  2
*Model_Space
 70
     0
 10
0.0
 20
0.0
 30
0.0
  3
*Model_Space
  1

  0
ENDBLK
  5
21
330
1F
100
AcDbEntity
  8
0
100
AcDbBlockEnd
  0
BLOCK
  5
1C
330
1B
100
AcDbEntity
 67
     1
  8
0
100
AcDbBlockBegin
  2
*Paper_Space
 70
     0
 10
0.0
 20
0.0
 30
0.0
  3
*Paper_Space
  1

  0
ENDBLK
  5
1D
330
1B
100
AcDbEntity
 67
     1
  8
0
100
AcDbBlockEnd
  0
BLOCK
  5
24
330
23
100
AcDbEntity
  8
0
100
AcDbBlockBegin
  2
*Paper_Space0
 70
     0
 10
0.0
 20
0.0
 30
0.0
  3
*Paper_Space0
  1

  0
ENDBLK
  5
25
330
23
100
AcDbEntity
  8
0
100
AcDbBlockEnd
  0
BLOCK
  5
73
330
70
100
AcDbEntity
  8
0
100
AcDbBlockBegin
  2
_ORIGIN
 70
     0
 10
0.0
 20
0.0
 30
0.0
  3
_ORIGIN
  1

  0
CIRCLE
  5
71
330
70
100
AcDbEntity
  8
0
 62
     0
100
AcDbCircle
 10
0.0
 20
0.0
 30
0.0
 40
0.5
  0
LINE
  5
72
330
70
100
AcDbEntity
  8
0
 62
     0
100
AcDbLine
 10
0.0
 20
0.0
 30
0.0
 11
-1.0
 21
0.0
 31
0.0
  0
ENDBLK
  5
74
330
70
100
AcDbEntity
  8
0
100
AcDbBlockEnd
  0
BLOCK
  5
78
330
75
100
AcDbEntity
  8
0
100
AcDbBlockBegin
  2
_DOTBLANK
 70
     0
 10
0.0
 20
0.0
 30
0.0
  3
_DOTBLANK
  1

  0
CIRCLE
  5
76
330
75
100
AcDbEntity
  8
0
 62
     0
100
AcDbCircle
 10
0.0
 20
0.0
 30
0.0
 40
0.5
  0
LINE
  5
77
330
75
100
AcDbEntity
  8
0
 62
     0
100
AcDbLine
 10
-0.5
 20
0.0
 30
0.0
 11
-1.0
 21
0.0
 31
0.0
  0
ENDBLK
  5
79
330
75
100
AcDbEntity
  8
0
100
AcDbBlockEnd
  0
BLOCK
  5
7D
330
7A
100
AcDbEntity
  8
0
100
AcDbBlockBegin
  2
_DOT
 70
     0
 10
0.0
 20
0.0
 30
0.0
  3
_DOT
  1

  0
LWPOLYLINE
  5
7B
330
7A
100
AcDbEntity
  8
0
 62
     0
100
AcDbPolyline
 90
        2
 70
     1
 43
0.5
 10
-0.25
 20
0.0
 42
1.0
 10
0.25
 20
0.0
 42
1.0
  0
LINE
  5
7C
330
7A
100
AcDbEntity
  8
0
 62
     0
100
AcDbLine
 10
-0.5
 20
0.0
 30
0.0
 11
-1.0
 21
0.0
 31
0.0
  0
ENDBLK
  5
7E
330
7A
100
AcDbEntity
  8
0
100
AcDbBlockEnd
  0
BLOCK
  5
83
330
7F
100
AcDbEntity
  8
0
100
AcDbBlockBegin
  2
_OPEN
 70
     0
 10
0.0
 20
0.0
 30
0.0
  3
_OPEN
  1

  0
LINE
  5
80
330
7F
100
AcDbEntity
  8
0
 62
     0
100
AcDbLine
 10
0.0
 20
0.0
 30
0.0
 11
-1.0
 21
0.1666666666666667
 31
0.0
  0
LINE
  5
81
330
7F
100
AcDbEntity
  8
0
 62
     0
100
AcDbLine
 10
0.0
 20
0.0
 30
0.0
 11
-1.0
 21
-0.1666666666666667
 31
0.0
  0
LINE
  5
82
330
7F
100
AcDbEntity
  8
0
 62
     0
100
AcDbLine
 10
0.0
 20
0.0
 30
0.0
 11
-1.0
 21
0.0
 31
0.0
  0
ENDBLK
  5
84
330
7F
100
AcDbEntity
  8
0
100
AcDbBlockEnd
  0
BLOCK
  5
8A
330
85
100
AcDbEntity
  8
0
100
AcDbBlockBegin
  2
_CLOSED
 70
     0
 10
0.0
 20
0.0
 30
0.0
  3
_CLOSED
  1

  0
LINE
  5
86
330
85
100
AcDbEntity
  8
0
 62
     0
100
AcDbLine
 10
0.0
 20
0.0
 30
0.0
 11
-1.0
 21
0.1666666666666667
 31
0.0
  0
LINE
  5
87
330
85
100
AcDbEntity
  8
0
 62
     0
100
AcDbLine
 10
0.0
 20
0.0
 30
0.0
 11
-1.0
 21
-0.1666666666666667
 31
0.0
  0
LINE
  5
88
330
85
100
AcDbEntity
  8
0
 62
     0
100
AcDbLine
 10
-1.0
 20
0.1666666666666667
 30
0.0
 11
-1.0
 21
-0.1666666666666667
 31
0.0
  0
LINE
  5
89
330
85
100
AcDbEntity
  8
0
 62
     0
100
AcDbLine
 10
0.0
 20
0.0
 30
0.0
 11
-1.0
 21
0.0
 31
0.0
  0
ENDBLK
  5
8B
330
85
100
AcDbEntity
  8
0
100
AcDbBlockEnd
  0
BLOCK
  5
90
330
8C
100
AcDbEntity
  8
0
100
AcDbBlockBegin
  2
_CLOSEDBLANK
 70
     0
 10
0.0
 20
0.0
 30
0.0
  3
_CLOSEDBLANK
  1

  0
LINE
  5
8D
330
8C
100
AcDbEntity
  8
0
 62
     0
100
AcDbLine
 10
0.0
 20
0.0
 30
0.0
 11
-1.0
 21
0.1666666666666667
 31
0.0
  0
LINE
  5
8E
330
8C
100
AcDbEntity
  8
0
 62
     0
100
AcDbLine
 10
0.0
 20
0.0
 30
0.0
 11
-1.0
 21
-0.1666666666666667
 31
0.0
  0
LINE
  5
8F
330
8C
100
AcDbEntity
  8
0
 62
     0
100
AcDbLine
 10
-1.0
 20
0.1666666666666667
 30
0.0
 11
-1.0
 21
-0.1666666666666667
 31
0.0
  0
ENDBLK
  5
91
330
8C
100
AcDbEntity
  8
0
100
AcDbBlockEnd
  0
BLOCK
  5
94
330
92
100
AcDbEntity
  8
0
100
AcDbBlockBegin
  2
_ARROWFILLED
 70
     0
 10
0.0
 20
0.0
 30
0.0
  3
_ARROWFILLED
  1

  0
SOLID
  5
93
330
92
100
AcDbEntity
  8
0
 62
     0
100
AcDbTrace
 10
0.0
 20
0.0
 30
0.0
 11
-1.0
 21
-0.1666666666666667
 31
0.0
 12
-1.0
 22
0.1666666666666667
 32
0.0
 13
0.0
 23
0.0
 33
0.0
  0
ENDBLK
  5
95
330
92
100
AcDbEntity
  8
0
100
AcDbBlockEnd
  0
BLOCK
  5
9C
330
96
100
AcDbEntity
  8
0
100
AcDbBlockBegin
  2
_BOXBLANK
 70
     0
 10
0.0
 20
0.0
 30
0.0
  3
_BOXBLANK
  1

  0
LINE
  5
97
330
96
100
AcDbEntity
  8
0
 62
     0
100
AcDbLine
 10
-0.5
 20
-0.5
 30
0.0
 11
0.5
 21
-0.5
 31
0.0
  0
LINE
  5
98
330
96
100
AcDbEntity
  8
0
 62
     0
100
AcDbLine
 10
0.5
 20
-0.5
 30
0.0
 11
0.5
 21
0.5
 31
0.0
  0
LINE
  5
99
330
96
100
AcDbEntity
  8
0
 62
     0
100
AcDbLine
 10
0.5
 20
0.5
 30
0.0
 11
-0.5
 21
0.5
 31
0.0
  0
LINE
  5
9A
330
96
100
AcDbEntity
  8
0
 62
     0
100
AcDbLine
 10
-0.5
 20
0.5
 30
0.0
 11
-0.5
 21
-0.5
 31
0.0
  0
LINE
  5
9B
330
96
100
AcDbEntity
  8
0
 62
     0
100
AcDbLine
 10
-0.5
 20
0.0
 30
0.0
 11
-1.0
 21
0.0
 31
0.0
  0
ENDBLK
  5
9D
330
96
100
AcDbEntity
  8
0
100
AcDbBlockEnd
  0
BLOCK
  5
A1
330
9E
100
AcDbEntity
  8
0
100
AcDbBlockBegin
  2
_BOXFILLED
 70
     0
 10
0.0
 20
0.0
 30
0.0
  3
_BOXFILLED
  1

  0
SOLID
  5
9F
330
9E
100
AcDbEntity
  8
0
 62
     0
100
AcDbTrace
 10
-0.5
 20
0.5
 30
0.0
 11
0.5
 21
0.5
 31
0.0
 12
-0.5
 22
-0.5
 32
0.0
 13
0.5
 23
-0.5
 33
0.0
  0
LINE
  5
A0
330
9E
100
AcDbEntity
  8
0
 62
     0
100
AcDbLine
 10
-0.5
 20
0.0
 30
0.0
 11
-1.0
 21
0.0
 31
0.0
  0
ENDBLK
  5
A2
330
9E
100
AcDbEntity
  8
0
100
AcDbBlockEnd
  0
BLOCK
  5
A6
330
A3
100
AcDbEntity
  8
0
100
AcDbBlockBegin
  2
_INTEGRAL
 70
     0
 10
0.0
 20
0.0
 30
0.0
  3
_INTEGRAL
  1

  0
ARC
  5
A4
330
A3
100
AcDbEntity
  8
0
 62
     0
100
AcDbCircle
 10
0.444888
 20
-0.0913346
 30
0.0
 40
0.4541666
100
AcDbArc
 50
101.9999999999999
 51
167.9999999999998
  0
ARC
  5
A5
330
A3
100
AcDbEntity
  8
0
 62
     0
100
AcDbCircle
 10
-0.444888
 20
0.0913346
 30
0.0
 40
0.4541666
100
AcDbArc
 50
281.9999999999997
 51
347.9999999999997
  0
ENDBLK
  5
A7
330
A3
100
AcDbEntity
  8
0
100
AcDbBlockEnd
  0
BLOCK
  5
AA
330
A8
100
AcDbEntity
  8
0
100
AcDbBlockBegin
  2
_OBLIQUE
 70
     0
 10
0.0
 20
0.0
 30
0.0
  3
_OBLIQUE
  1

  0
LINE
  5
A9
330
A8
100
AcDbEntity
  8
0
 62
     0
100
AcDbLine
 10
-0.5
 20
-0.5
 30
0.0
 11
0.5
 21
0.5
 31
0.0
  0
ENDBLK
  5
AB
330
A8
100
AcDbEntity
  8
0
100
AcDbBlockEnd
  0
BLOCK
  5
AD
330
AC
100
AcDbEntity
  8
0
100
AcDbBlockBegin
  2
_NONE
 70
     0
 10
0.0
 20
0.0
 30
0.0
  3
_NONE
  1

  0
ENDBLK
  5
AE
330
AC
100
AcDbEntity
  8
0
100
AcDbBlockEnd
  0
BLOCK
  5
B2
330
AF
100
AcDbEntity
  8
0
100
AcDbBlockBegin
  2
MARK_OPEN
 70
     0
 10
0.0
 20
0.0
 30
0.0
  3
MARK_OPEN
  1

  0
LINE
  5
B0
330
AF
100
AcDbEntity
  8
0
 62
     0
100
AcDbLine
 10
0.0
 20
0.0
 30
0.0
 11
-1.0
 21
0.1666666666666667
 31
0.0
  0
LINE
  5
B1
330
AF
100
AcDbEntity
  8
0
 62
     0
100
AcDbLine
 10
0.0
 20
0.0
 30
0.0
 11
-1.0
 21
-0.1666666666666667
 31
0.0
  0
ENDBLK
  5
B3
330
AF
100
AcDbEntity
  8
0
100
AcDbBlockEnd
  0
BLOCK
  5
B6
330
B4
100
AcDbEntity
  8
0
100
AcDbBlockBegin
  2
MARK_ORIGIN
 70
     0
 10
0.0
 20
0.0
 30
0.0
  3
MARK_ORIGIN
  1

  0
CIRCLE
  5
B5
330
B4
100
AcDbEntity
  8
0
 62
     0
100
AcDbCircle
 10
0.0
 20
0.0
 30
0.0
 40
0.5
  0
ENDBLK
  5
B7
330
B4
100
AcDbEntity
  8
0
100
AcDbBlockEnd
  0
BLOCK
  5
BA
330
B8
100
AcDbEntity
  8
0
100
AcDbBlockBegin
  2
MARK_DOT
 70
     0
 10
0.0
 20
0.0
 30
0.0
  3
MARK_DOT
  1

  0
LWPOLYLINE
  5
B9
330
B8
100
AcDbEntity
  8
0
 62
     0
100
AcDbPolyline
 90
        2
 70
     1
 43
0.5
 10
-0.25
 20
0.0
 42
1.0
 10
0.25
 20
0.0
 42
1.0
  0
ENDBLK
  5
BB
330
B8
100
AcDbEntity
  8
0
100
AcDbBlockEnd
  0
ENDSEC
  0
SECTION
  2
ENTITIES
  0
LINE
  5
DA
330
1F
100
AcDbEntity
  8
101
  6
Continuous
 62
     7
370
    30
100
AcDbLine
 10
89.35051240936906
 20
202.1158236893469
 30
0.0
 11
88.27096695482359
 21
202.3715055075288
 31
0.0
  0
LINE
  5
DB
330
1F
100
AcDbEntity
  8
101
  6
Continuous
 62
     7
370
    30
100
AcDbLine
 10
88.27096695482359
 20
202.3715055075288
 30
0.0
 11
87.2766487730054
 21
202.3999145984379
 31
0.0
  0
LINE
  5
DC
330
1F
100
AcDbEntity
  8
101
  6
Continuous
 62
     7
370
    30
100
AcDbLine
 10
87.2766487730054
 20
202.3999145984379
 30
0.0
 11
85.96983059118725
 21
202.3715055075288
 31
0.0
  0
LINE
  5
DD
330
1F
100
AcDbEntity
  8
101
  6
Continuous
 62
     7
370
    30
100
AcDbLine
 10
85.96983059118725
 20
202.3715055075288
 30
0.0
 11
84.86187604573269
 21
201.9453691438924
 31
0.0
  0
LINE
  5
DE
330
1F
100
AcDbEntity
  8
101
  6
Continuous
 62
     7
370
    30
100
AcDbLine
 10
84.86187604573269
 20
201.9453691438924
 30
0.0
 11
83.49823968209631
 21
201.1499145984379
 31
0.0
  0
LINE
  5
DF
330
1F
100
AcDbEntity
  8
101
  6
Continuous
 62
     7
370
    30
100
AcDbLine
 10
83.49823968209631
 20
201.1499145984379
 30
0.0
 11
82.2766487730054
 21
200.0987782348015
 31
0.0
  0
LINE
  5
E0
330
1F
100
AcDbEntity
  8
101
  6
Continuous
 62
     7
370
    30
100
AcDbLine
 10
82.2766487730054
 20
200.0987782348015
 30
0.0
 11
81.19710331845994
 21
198.706732780256
 31
0.0
  0
LINE
  5
E1
330
1F
100
AcDbEntity
  8
101
  6
Continuous
 62
     7
370
    30
100
AcDbLine
 10
81.19710331845994
 20
198.706732780256
 30
0.0
 11
80.21698968209631
 21
197.5135509620742
 31
0.0
  0
LINE
  5
E2
330
1F
100
AcDbEntity
  8
101
  6
Continuous
 62
     7
370
    30
100
AcDbLine
 10
80.21698968209631
 20
197.5135509620742
 30
0.0
 11
79.44994422755084
 21
196.4908236893469
 31
0.0
  0
LINE
  5
E3
330
1F
100
AcDbEntity
  8
101
  6
Continuous
 62
     7
370
    30
100
AcDbLine
 10
79.44994422755084
 20
196.4908236893469
 30
0.0
 11
78.58346695482356
 21
195.1840055075288
 31
0.0
  0
LINE
  5
E4
330
1F
100
AcDbEntity
  8
101
  6
Continuous
 62
     7
370
    30
100
AcDbLine
 10
78.58346695482356
 20
195.1840055075288
 30
0.0
 11
77.81642150027812
 21
193.8203691438924
 31
0.0
  0
LINE
  5
E5
330
1F
100
AcDbEntity
  8
101
  6
Continuous
 62
     7
370
    30
100
AcDbLine
 10
77.81642150027812
 20
193.8203691438924
 30
0.0
 11
76.9641487730054
 21
192.2862782348015
 31
0.0
  0
LINE
  5
E6
330
1F
100
AcDbEntity
  8
101
  6
Continuous
 62
     7
370
    30
100
AcDbLine
 10
76.9641487730054
 20
192.2862782348015
 30
0.0
 11
76.18289877300538
 21
190.6953691438925
 31
0.0
  0
LINE
  5
E7
330
1F
100
AcDbEntity
  8
101
  6
Continuous
 62
     7
370
    30
100
AcDbLine
 10
76.18289877300538
 20
190.6953691438925
 30
0.0
 11
75.17437604573263
 21
187.939687325711
 31
0.0
  0
LINE
  5
E8
330
1F
100
AcDbEntity
  8
101
  6
Continuous
 62
     7
370
    30
100
AcDbLine
 10
75.17437604573263
 20
187.939687325711
 30
0.0
 11
74.194262409369
 21
185.1413918711655
 31
0.0
  0
LINE
  5
E9
330
1F
100
AcDbEntity
  8
101
  6
Continuous
 62
     7
370
    30
100
AcDbLine
 10
74.194262409369
 20
185.1413918711655
 30
0.0
 11
73.19994422755082
 21
181.689687325711
 31
0.0
  0
LINE
  5
EA
330
1F
100
AcDbEntity
  8
101
  6
Continuous
 62
     7
370
    30
100
AcDbLine
 10
73.19994422755082
 20
181.689687325711
 30
0.0
 11
72.46130786391444
 21
178.5078691438928
 31
0.0
  0
LINE
  5
EB
330
1F
100
AcDbEntity
  8
101
  6
Continuous
 62
     7
370
    30
100
AcDbLine
 10
72.46130786391444
 20
178.5078691438928
 30
0.0
 11
71.93573968209625
 21
175.5817327802564
 31
0.0
  0
LINE
  5
EC
330
1F
100
AcDbEntity
  8
101
  6
Continuous
 62
     7
370
    30
100
AcDbLine
 10
71.93573968209625
 20
175.5817327802564
 30
0.0
 11
71.48119422755079
 21
172.2152555075292
 31
0.0
  0
LINE
  5
ED
330
1F
100
AcDbEntity
  8
101
  6
Continuous
 62
     7
370
    30
100
AcDbLine
 10
71.48119422755079
 20
172.2152555075292
 30
0.0
 11
71.04085331845988
 21
168.8203691438928
 31
0.0
  0
LINE
  5
EE
330
1F
100
AcDbEntity
  8
101
  6
Continuous
 62
     7
370
    30
100
AcDbLine
 10
71.04085331845988
 20
168.8203691438928
 30
0.0
 11
70.78517150027807
 21
165.439687325711
 31
0.0
  0
LINE
  5
EF
330
1F
100
AcDbEntity
  8
101
  6
Continuous
 62
     7
370
    30
100
AcDbLine
 10
70.78517150027807
 20
165.439687325711
 30
0.0
 11
70.6147169548235
 21
161.4340055075292
 31
0.0
  0
LINE
  5
F0
330
1F
100
AcDbEntity
  8
101
  6
Continuous
 62
     7
370
    30
100
AcDbLine
 10
70.6147169548235
 20
161.4340055075292
 30
0.0
 11
70.6715351366417
 21
156.7465055075291
 31
0.0
  0
LINE
  5
F1
330
1F
100
AcDbEntity
  8
101
  6
Continuous
 62
     7
370
    30
100
AcDbLine
 10
70.6715351366417
 20
156.7465055075291
 30
0.0
 11
70.72835331845991
 21
148.8487782348018
 31
0.0
  0
LINE
  5
F2
330
1F
100
AcDbEntity
  8
101
  6
Continuous
 62
     7
370
    30
100
AcDbLine
 10
70.72835331845991
 20
148.8487782348018
 30
0.0
 11
70.81358059118719
 21
140.439687325711
 31
0.0
  0
LINE
  5
F3
330
1F
100
AcDbEntity
  8
101
  6
Continuous
 62
     7
370
    30
100
AcDbLine
 10
70.81358059118719
 20
140.439687325711
 30
0.0
 11
71.04085331845991
 21
136.0930964166201
 31
0.0
  0
LINE
  5
F4
330
1F
100
AcDbEntity
  8
101
  6
Continuous
 62
     7
370
    30
100
AcDbLine
 10
66.60903513664175
 20
136.9737782348019
 30
0.0
 11
66.58062604573263
 21
144.189687325711
 31
0.0
  0
LINE
  5
F5
330
1F
100
AcDbEntity
  8
101
  6
Continuous
 62
     7
370
    30
100
AcDbLine
 10
66.58062604573263
 20
144.189687325711
 30
0.0
 11
66.46698968209625
 21
150.6953691438928
 31
0.0
  0
LINE
  5
F6
330
1F
100
AcDbEntity
  8
101
  6
Continuous
 62
     7
370
    30
100
AcDbLine
 10
66.46698968209625
 20
150.6953691438928
 30
0.0
 11
66.26812604573263
 21
157.286278234802
 31
0.0
  0
LINE
  5
F7
330
1F
100
AcDbEntity
  8
101
  6
Continuous
 62
     7
370
    30
100
AcDbLine
 10
66.26812604573263
 20
157.286278234802
 30
0.0
 11
66.32494422755082
 21
164.8999145984383
 31
0.0
  0
LINE
  5
F8
330
1F
100
AcDbEntity
  8
101
  6
Continuous
 62
     7
370
    30
100
AcDbLine
 10
66.32494422755082
 20
164.8999145984383
 30
0.0
 11
66.63744422755082
 21
169.6442327802565
 31
0.0
  0
LINE
  5
F9
330
1F
100
AcDbEntity
  8
101
  6
Continuous
 62
     7
370
    30
100
AcDbLine
 10
66.63744422755082
 20
169.6442327802565
 30
0.0
 11
67.06358059118719
 21
172.8828691438929
 31
0.0
  0
LINE
  5
FA
330
1F
100
AcDbEntity
  8
101
  6
Continuous
 62
     7
370
    30
100
AcDbLine
 10
67.06358059118719
 20
172.8828691438929
 30
0.0
 11
67.46130786391447
 21
176.0078691438929
 31
0.0
  0
LINE
  5
FB
330
1F
100
AcDbEntity
  8
101
  6
Continuous
 62
     7
370
    30
100
AcDbLine
 10
67.46130786391447
 20
176.0078691438929
 30
0.0
 11
68.08630786391447
 21
179.4453691438929
 31
0.0
  0
LINE
  5
FC
330
1F
100
AcDbEntity
  8
101
  6
Continuous
 62
     7
370
    30
100
AcDbLine
 10
68.08630786391447
 20
179.4453691438929
 30
0.0
 11
68.85335331845994
 21
182.8828691438929
 31
0.0
  0
LINE
  5
FD
330
1F
100
AcDbEntity
  8
101
  6
Continuous
 62
     7
370
    30
100
AcDbLine
 10
68.85335331845994
 20
182.8828691438929
 30
0.0
 11
69.64880786391447
 21
185.5817327802566
 31
0.0
  0
LINE
  5
FE
330
1F
100
AcDbEntity
  8
101
  6
Continuous
 62
     7
370
    30
100
AcDbLine
 10
69.64880786391447
 20
185.5817327802566
 30
0.0
 11
70.61471695482356
 21
188.4794600529838
 31
0.0
  0
LINE
  5
FF
330
1F
100
AcDbEntity
  8
101
  6
Continuous
 62
     7
370
    30
100
AcDbLine
 10
70.61471695482356
 20
188.4794600529838
 30
0.0
 11
71.89312604573269
 21
191.5192327802566
 31
0.0
  0
LINE
  5
100
330
1F
100
AcDbEntity
  8
101
  6
Continuous
 62
     7
370
    30
100
AcDbLine
 10
71.89312604573269
 20
191.5192327802566
 30
0.0
 11
72.63176240936903
 21
193.4510509620748
 31
0.0
  0
LINE
  5
101
330
1F
100
AcDbEntity
  8
101
  6
Continuous
 62
     7
370
    30
100
AcDbLine
 10
72.63176240936903
 20
193.4510509620748
 30
0.0
 11
74.10903513664175
 21
196.2067327802566
 31
0.0
  0
LINE
  5
102
330
1F
100
AcDbEntity
  8
101
  6
Continuous
 62
     7
370
    30
100
AcDbLine
 10
74.10903513664175
 20
196.2067327802566
 30
0.0
 11
75.35903513664175
 21
198.3658236893475
 31
0.0
  0
LINE
  5
103
330
1F
100
AcDbEntity
  8
101
  6
Continuous
 62
     7
370
    30
100
AcDbLine
 10
75.35903513664175
 20
198.3658236893475
 30
0.0
 11
77.57494422755084
 21
200.8658236893475
 31
0.0
  0
LINE
  5
104
330
1F
100
AcDbEntity
  8
101
  6
Continuous
 62
     7
370
    30
100
AcDbLine
 10
77.57494422755084
 20
200.8658236893475
 30
0.0
 11
79.67721695482356
 21
203.0817327802566
 31
0.0
  0
LINE
  5
105
330
1F
100
AcDbEntity
  8
101
  6
Continuous
 62
     7
370
    30
100
AcDbLine
 10
79.67721695482356
 20
203.0817327802566
 30
0.0
 11
81.80789877300538
 21
205.0135509620747
 31
0.0
  0
LINE
  5
106
330
1F
100
AcDbEntity
  8
101
  6
Continuous
 62
     7
370
    30
100
AcDbLine
 10
81.80789877300538
 20
205.0135509620747
 30
0.0
 11
83.56926240936903
 21
205.7805964166202
 31
0.0
  0
LINE
  5
107
330
1F
100
AcDbEntity
  8
101
  6
Continuous
 62
     7
370
    30
100
AcDbLine
 10
83.56926240936903
 20
205.7805964166202
 30
0.0
 11
84.79795559118719
 21
206.0575850529838
 31
0.0
  0
LINE
  5
108
330
1F
100
AcDbEntity
  8
101
  6
Continuous
 62
     7
370
    30
100
AcDbLine
 10
84.79795559118719
 20
206.0575850529838
 30
0.0
 11
86.616137409369
 21
206.1712214166202
 31
0.0
  0
LINE
  5
109
330
1F
100
AcDbEntity
  8
101
  6
Continuous
 62
     7
370
    30
100
AcDbLine
 10
86.616137409369
 20
206.1712214166202
 30
0.0
 11
88.17153513664175
 21
206.1286077802566
 31
0.0
  0
LINE
  5
10A
330
1F
100
AcDbEntity
  8
101
  6
Continuous
 62
     7
370
    30
100
AcDbLine
 10
88.17153513664175
 20
206.1286077802566
 30
0.0
 11
89.35761468209631
 21
205.9439486893475
 31
0.0
  0
LINE
  5
10B
330
1F
100
AcDbEntity
  8
101
  6
Continuous
 62
     7
370
    30
100
AcDbLine
 10
89.35761468209631
 20
205.9439486893475
 30
0.0
 11
90.48687604573269
 21
205.5604259620748
 31
0.0
  0
LINE
  5
10C
330
1F
100
AcDbEntity
  8
101
  6
Continuous
 62
     7
370
    30
100
AcDbLine
 10
90.48687604573269
 20
205.5604259620748
 30
0.0
 11
91.74397831845994
 21
204.9141191438929
 31
0.0
  0
LINE
  5
10D
330
1F
100
AcDbEntity
  8
101
  6
Continuous
 62
     7
370
    30
100
AcDbLine
 10
91.74397831845994
 20
204.9141191438929
 30
0.0
 11
92.866137409369
 21
204.2749145984384
 31
0.0
  0
LINE
  5
10E
330
1F
100
AcDbEntity
  8
101
  6
Continuous
 62
     7
370
    30
100
AcDbLine
 10
92.866137409369
 20
204.2749145984384
 30
0.0
 11
93.83204650027812
 21
203.6357100529839
 31
0.0
  0
LINE
  5
10F
330
1F
100
AcDbEntity
  8
101
  6
Continuous
 62
     7
370
    30
100
AcDbLine
 10
86.28233730093945
 20
202.3782991316538
 30
0.0
 11
87.27664877300538
 21
201.9524714166203
 31
0.0
  0
LINE
  5
110
330
1F
100
AcDbEntity
  8
101
  6
Continuous
 62
     7
370
    30
100
AcDbLine
 10
87.27664877300538
 20
201.9524714166203
 30
0.0
 11
88.725512409369
 21
201.867244143893
 31
0.0
  0
LINE
  5
111
330
1F
100
AcDbEntity
  8
101
  6
Continuous
 62
     7
370
    30
100
AcDbLine
 10
88.725512409369
 20
201.867244143893
 30
0.0
 11
89.35051240936906
 21
202.1158236893469
 31
0.0
  0
LINE
  5
112
330
1F
100
AcDbEntity
  8
101
  6
Continuous
 62
     7
370
    30
100
AcDbLine
 10
89.35051240936906
 20
202.1158236893469
 30
0.0
 11
90.85619422755084
 21
202.8615623257112
 31
0.0
  0
LINE
  5
113
330
1F
100
AcDbEntity
  8
101
  6
Continuous
 62
     7
370
    30
100
AcDbLine
 10
90.85619422755084
 20
202.8615623257112
 30
0.0
 11
92.50392150027812
 21
203.4013350529839
 31
0.0
  0
LINE
  5
114
330
1F
100
AcDbEntity
  8
101
  6
Continuous
 62
     7
370
    30
100
AcDbLine
 10
92.50392150027812
 20
203.4013350529839
 30
0.0
 11
93.83204650027812
 21
203.6357100529839
 31
0.0
  0
LINE
  5
115
330
1F
100
AcDbEntity
  8
101
  6
Continuous
 62
     7
370
    30
100
AcDbLine
 10
93.83204650027812
 20
203.6357100529839
 30
0.0
 11
95.64312604573266
 21
203.8700850529839
 31
0.0
  0
LINE
  5
116
330
1F
100
AcDbEntity
  8
101
  6
Continuous
 62
     7
370
    30
100
AcDbLine
 10
95.64312604573266
 20
203.8700850529839
 30
0.0
 11
97.39028513664175
 21
203.9553123257112
 31
0.0
  0
LINE
  5
117
330
1F
100
AcDbEntity
  8
101
  6
Continuous
 62
     7
370
    30
100
AcDbLine
 10
97.39028513664175
 20
203.9553123257112
 30
0.0
 11
98.96698968209631
 21
203.7422441438929
 31
0.0
  0
LINE
  5
118
330
1F
100
AcDbEntity
  8
101
  6
Continuous
 62
     7
370
    30
100
AcDbLine
 10
98.96698968209631
 20
203.7422441438929
 30
0.0
 11
100.1601715002781
 21
203.3871305075293
 31
0.0
  0
LINE
  5
119
330
1F
100
AcDbEntity
  8
101
  6
Continuous
 62
     7
370
    30
100
AcDbLine
 10
100.1601715002781
 20
203.3871305075293
 30
0.0
 11
102.0351715002782
 21
202.5490623257111
 31
0.0
  0
LINE
  5
11A
330
1F
100
AcDbEntity
  8
101
  6
Continuous
 62
     7
370
    30
100
AcDbLine
 10
102.0351715002782
 20
202.5490623257111
 30
0.0
 11
105.3874442275509
 21
200.8871305075293
 31
0.0
  0
LINE
  5
11B
330
1F
100
AcDbEntity
  8
101
  6
Continuous
 62
     7
370
    30
100
AcDbLine
 10
105.3874442275509
 20
200.8871305075293
 30
0.0
 11
108.7539215002782
 21
198.926903234802
 31
0.0
  0
LINE
  5
11C
330
1F
100
AcDbEntity
  8
101
  6
Continuous
 62
     7
370
    30
100
AcDbLine
 10
108.7539215002782
 20
198.926903234802
 30
0.0
 11
111.5238078639146
 21
197.2365623257111
 31
0.0
  0
LINE
  5
11D
330
1F
100
AcDbEntity
  8
101
  6
Continuous
 62
     7
370
    30
100
AcDbLine
 10
111.5238078639146
 20
197.2365623257111
 30
0.0
 11
114.6488078639146
 21
195.0774714166202
 31
0.0
  0
LINE
  5
11E
330
1F
100
AcDbEntity
  8
101
  6
Continuous
 62
     7
370
    30
100
AcDbLine
 10
114.6488078639146
 20
195.0774714166202
 30
0.0
 11
117.6317624093691
 21
192.7621305075293
 31
0.0
  0
LINE
  5
11F
330
1F
100
AcDbEntity
  8
101
  6
Continuous
 62
     7
370
    30
100
AcDbLine
 10
117.6317624093691
 20
192.7621305075293
 30
0.0
 11
119.5919896820964
 21
190.8303123257111
 31
0.0
  0
LINE
  5
120
330
1F
100
AcDbEntity
  8
101
  6
Continuous
 62
     7
370
    30
100
AcDbLine
 10
119.5919896820964
 20
190.8303123257111
 30
0.0
 11
121.7510805911872
 21
188.6854259620748
 31
0.0
  0
LINE
  5
121
330
1F
100
AcDbEntity
  8
101
  6
Continuous
 62
     7
370
    30
100
AcDbLine
 10
121.7510805911872
 20
188.6854259620748
 30
0.0
 11
123.4840351366418
 21
186.5405395984384
 31
0.0
  0
LINE
  5
122
330
1F
100
AcDbEntity
  8
101
  6
Continuous
 62
     7
370
    30
100
AcDbLine
 10
123.4840351366418
 20
186.5405395984384
 30
0.0
 11
125.3022169548236
 21
183.9695168711658
 31
0.0
  0
LINE
  5
123
330
1F
100
AcDbEntity
  8
101
  6
Continuous
 62
     7
370
    30
100
AcDbLine
 10
125.3022169548236
 20
183.9695168711658
 30
0.0
 11
127.1772169548236
 21
181.1996305075294
 31
0.0
  0
LINE
  5
124
330
1F
100
AcDbEntity
  8
101
  6
Continuous
 62
     7
370
    30
100
AcDbLine
 10
127.1772169548236
 20
181.1996305075294
 30
0.0
 11
128.7539215002782
 21
178.5433805075293
 31
0.0
  0
LINE
  5
125
330
1F
100
AcDbEntity
  8
101
  6
Continuous
 62
     7
370
    30
100
AcDbLine
 10
128.7539215002782
 20
178.5433805075293
 30
0.0
 11
129.8902851366419
 21
176.2280395984384
 31
0.0
  0
LINE
  5
126
330
1F
100
AcDbEntity
  8
101
  6
Continuous
 62
     7
370
    30
100
AcDbLine
 10
129.8902851366419
 20
176.2280395984384
 30
0.0
 11
130.7709669548237
 21
173.5291759620748
 31
0.0
  0
LINE
  5
127
330
1F
100
AcDbEntity
  8
101
  6
Continuous
 62
     7
370
    30
100
AcDbLine
 10
130.7709669548237
 20
173.5291759620748
 30
0.0
 11
131.4953987730055
 21
171.1712214166203
 31
0.0
  0
LINE
  5
128
330
1F
100
AcDbEntity
  8
101
  6
Continuous
 62
     7
370
    30
100
AcDbLine
 10
131.4953987730055
 20
171.1712214166203
 30
0.0
 11
132.0777851366419
 21
168.5149714166202
 31
0.0
  0
LINE
  5
129
330
1F
100
AcDbEntity
  8
101
  6
Continuous
 62
     7
370
    30
100
AcDbLine
 10
132.0777851366419
 20
168.5149714166202
 30
0.0
 11
132.6033533184601
 21
165.8871305075293
 31
0.0
  0
LINE
  5
12A
330
1F
100
AcDbEntity
  8
101
  6
Continuous
 62
     7
370
    30
100
AcDbLine
 10
132.6033533184601
 20
165.8871305075293
 30
0.0
 11
132.9016487730056
 21
163.2450850529838
 31
0.0
  0
LINE
  5
12B
330
1F
100
AcDbEntity
  8
101
  6
Continuous
 62
     7
370
    30
100
AcDbLine
 10
132.9016487730056
 20
163.2450850529838
 30
0.0
 11
133.2425578639147
 21
159.2536077802567
 31
0.0
  0
LINE
  5
12C
330
1F
100
AcDbEntity
  8
101
  6
Continuous
 62
     7
370
    30
100
AcDbLine
 10
133.2425578639147
 20
159.2536077802567
 30
0.0
 11
133.3846033184603
 21
154.5376986893477
 31
0.0
  0
LINE
  5
12D
330
1F
100
AcDbEntity
  8
101
  6
Continuous
 62
     7
370
    30
100
AcDbLine
 10
133.3846033184603
 20
154.5376986893477
 30
0.0
 11
133.5266487730057
 21
145.9155395984387
 31
0.0
  0
LINE
  5
12E
330
1F
100
AcDbEntity
  8
101
  6
Continuous
 62
     7
370
    30
100
AcDbLine
 10
133.5266487730057
 20
145.9155395984387
 30
0.0
 11
133.5550578639148
 21
140.5462214166204
 31
0.0
  0
LINE
  5
12F
330
1F
100
AcDbEntity
  8
101
  6
Continuous
 62
     7
370
    30
100
AcDbLine
 10
129.5209669548239
 20
139.3246305075295
 30
0.0
 11
129.4641487730057
 21
146.1996305075295
 31
0.0
  0
LINE
  5
130
330
1F
100
AcDbEntity
  8
101
  6
Continuous
 62
     7
370
    30
100
AcDbLine
 10
129.4641487730057
 20
146.1996305075295
 30
0.0
 11
129.3789215002784
 21
151.8530395984387
 31
0.0
  0
LINE
  5
131
330
1F
100
AcDbEntity
  8
101
  6
Continuous
 62
     7
370
    30
100
AcDbLine
 10
129.3789215002784
 20
151.8530395984387
 30
0.0
 11
129.236876045733
 21
155.9155395984387
 31
0.0
  0
LINE
  5
132
330
1F
100
AcDbEntity
  8
101
  6
Continuous
 62
     7
370
    30
100
AcDbLine
 10
129.236876045733
 20
155.9155395984387
 30
0.0
 11
129.1232396820966
 21
160.6456532348023
 31
0.0
  0
LINE
  5
133
330
1F
100
AcDbEntity
  8
101
  6
Continuous
 62
     7
370
    30
100
AcDbLine
 10
129.1232396820966
 20
160.6456532348023
 30
0.0
 11
128.9953987730056
 21
162.5774714166204
 31
0.0
  0
LINE
  5
134
330
1F
100
AcDbEntity
  8
101
  6
Continuous
 62
     7
370
    30
100
AcDbLine
 10
128.9953987730056
 20
162.5774714166204
 30
0.0
 11
128.7539215002784
 21
164.8501986893477
 31
0.0
  0
LINE
  5
135
330
1F
100
AcDbEntity
  8
101
  6
Continuous
 62
     7
370
    30
100
AcDbLine
 10
128.7539215002784
 20
164.8501986893477
 30
0.0
 11
128.4414215002782
 21
166.966675962075
 31
0.0
  0
LINE
  5
136
330
1F
100
AcDbEntity
  8
101
  6
Continuous
 62
     7
370
    30
100
AcDbLine
 10
128.4414215002782
 20
166.966675962075
 30
0.0
 11
127.9442624093692
 21
169.2678123257114
 31
0.0
  0
LINE
  5
137
330
1F
100
AcDbEntity
  8
101
  6
Continuous
 62
     7
370
    30
100
AcDbLine
 10
127.9442624093692
 20
169.2678123257114
 30
0.0
 11
127.0067624093692
 21
172.2933805075295
 31
0.0
  0
LINE
  5
138
330
1F
100
AcDbEntity
  8
101
  6
Continuous
 62
     7
370
    30
100
AcDbLine
 10
127.0067624093692
 20
172.2933805075295
 30
0.0
 11
125.8988078639146
 21
175.0206532348022
 31
0.0
  0
LINE
  5
139
330
1F
100
AcDbEntity
  8
101
  6
Continuous
 62
     7
370
    30
100
AcDbLine
 10
125.8988078639146
 20
175.0206532348022
 30
0.0
 11
123.8817624093691
 21
179.1399714166204
 31
0.0
  0
LINE
  5
13A
330
1F
100
AcDbEntity
  8
101
  6
Continuous
 62
     7
370
    30
100
AcDbLine
 10
123.8817624093691
 20
179.1399714166204
 30
0.0
 11
121.2255124093691
 21
183.0462214166204
 31
0.0
  0
LINE
  5
13B
330
1F
100
AcDbEntity
  8
101
  6
Continuous
 62
     7
370
    30
100
AcDbLine
 10
121.2255124093691
 20
183.0462214166204
 30
0.0
 11
118.6118760457328
 21
186.3984941438931
 31
0.0
  0
LINE
  5
13C
330
1F
100
AcDbEntity
  8
101
  6
Continuous
 62
     7
370
    30
100
AcDbLine
 10
118.6118760457328
 20
186.3984941438931
 30
0.0
 11
115.8846033184601
 21
189.1115623257112
 31
0.0
  0
LINE
  5
13D
330
1F
100
AcDbEntity
  8
101
  6
Continuous
 62
     7
370
    30
100
AcDbLine
 10
115.8846033184601
 20
189.1115623257112
 30
0.0
 11
113.981194227551
 21
190.7592895984384
 31
0.0
  0
LINE
  5
13E
330
1F
100
AcDbEntity
  8
101
  6
Continuous
 62
     7
370
    30
100
AcDbLine
 10
113.981194227551
 20
190.7592895984384
 30
0.0
 11
111.3959669548238
 21
192.8899714166202
 31
0.0
  0
LINE
  5
13F
330
1F
100
AcDbEntity
  8
101
  6
Continuous
 62
     7
370
    30
100
AcDbLine
 10
111.3959669548238
 20
192.8899714166202
 30
0.0
 11
108.7113078639147
 21
194.7081532348021
 31
0.0
  0
LINE
  5
140
330
1F
100
AcDbEntity
  8
101
  6
Continuous
 62
     7
370
    30
100
AcDbLine
 10
108.7113078639147
 20
194.7081532348021
 30
0.0
 11
105.5152851366419
 21
196.6683805075293
 31
0.0
  0
LINE
  5
141
330
1F
100
AcDbEntity
  8
101
  6
Continuous
 62
     7
370
    30
100
AcDbLine
 10
105.5152851366419
 20
196.6683805075293
 30
0.0
 11
102.1914215002782
 21
198.4439486893474
 31
0.0
  0
LINE
  5
142
330
1F
100
AcDbEntity
  8
101
  6
Continuous
 62
     7
370
    30
100
AcDbLine
 10
102.1914215002782
 20
198.4439486893474
 30
0.0
 11
99.20846695482368
 21
199.6939486893474
 31
0.0
  0
LINE
  5
143
330
1F
100
AcDbEntity
  8
101
  6
Continuous
 62
     7
370
    30
100
AcDbLine
 10
99.20846695482368
 20
199.6939486893474
 30
0.0
 11
97.26244422755099
 21
200.2905395984382
 31
0.0
  0
LINE
  5
144
330
1F
100
AcDbEntity
  8
101
  6
Continuous
 62
     7
370
    30
100
AcDbLine
 10
97.26244422755099
 20
200.2905395984382
 30
0.0
 11
95.16017150027824
 21
200.2621305075291
 31
0.0
  0
LINE
  5
145
330
1F
100
AcDbEntity
  8
101
  6
Continuous
 62
     7
370
    30
100
AcDbLine
 10
95.16017150027824
 20
200.2621305075291
 30
0.0
 11
93.68289877300552
 21
200.1342895984382
 31
0.0
  0
LINE
  5
146
330
1F
100
AcDbEntity
  8
101
  6
Continuous
 62
     7
370
    30
100
AcDbLine
 10
93.68289877300552
 20
200.1342895984382
 30
0.0
 11
93.00108059118733
 21
199.5234941438927
 31
0.0
  0
LINE
  5
147
330
1F
100
AcDbEntity
  8
101
  6
Continuous
 62
     7
370
    30
100
AcDbLine
 10
93.00108059118733
 20
199.5234941438927
 30
0.0
 11
91.7368760457328
 21
199.0973577802564
 31
0.0
  0
LINE
  5
148
330
1F
100
AcDbEntity
  8
101
  6
Continuous
 62
     7
370
    30
100
AcDbLine
 10
91.7368760457328
 20
199.0973577802564
 30
0.0
 11
89.90448968209643
 21
198.8558805075291
 31
0.0
  0
LINE
  5
149
330
1F
100
AcDbEntity
  8
101
  6
Continuous
 62
     7
370
    30
100
AcDbLine
 10
89.90448968209643
 20
198.8558805075291
 30
0.0
 11
87.97267150027824
 21
198.7422441438927
 31
0.0
  0
LINE
  5
14A
330
1F
100
AcDbEntity
  8
101
  6
Continuous
 62
     7
370
    30
100
AcDbLine
 10
87.97267150027824
 20
198.7422441438927
 30
0.0
 11
86.15448968209643
 21
198.9269032348016
 31
0.0
  0
LINE
  5
14B
330
1F
100
AcDbEntity
  8
101
  6
Continuous
 62
     7
370
    30
100
AcDbLine
 10
86.15448968209643
 20
198.9269032348016
 30
0.0
 11
84.18005786391458
 21
199.2962214166197
 31
0.0
  0
LINE
  5
14C
330
1F
100
AcDbEntity
  8
101
  6
Continuous
 62
     7
370
    30
100
AcDbLine
 10
84.18005786391458
 20
199.2962214166197
 30
0.0
 11
82.21817924351029
 21
200.0233833151893
 31
0.0
  0
LINE
  5
14D
330
1F
100
AcDbEntity
  8
101
  6
Continuous
 62
     7
370
    30
100
AcDbLine
 10
126.6232396820965
 20
138.2308805075288
 30
0.0
 11
126.6232396820965
 21
150.2763350529834
 31
0.0
  0
LINE
  5
14E
330
1F
100
AcDbEntity
  8
101
  6
Continuous
 62
     7
370
    30
100
AcDbLine
 10
126.6232396820965
 20
150.2763350529834
 30
0.0
 11
126.1118760457328
 21
159.4240623257107
 31
0.0
  0
LINE
  5
14F
330
1F
100
AcDbEntity
  8
101
  6
Continuous
 62
     7
370
    30
100
AcDbLine
 10
126.1118760457328
 20
159.4240623257107
 30
0.0
 11
124.9755124093692
 21
165.3331532348016
 31
0.0
  0
LINE
  5
150
330
1F
100
AcDbEntity
  8
101
  6
Continuous
 62
     7
370
    30
100
AcDbLine
 10
124.9755124093692
 20
165.3331532348016
 30
0.0
 11
123.668694227551
 21
169.0831532348016
 31
0.0
  0
LINE
  5
151
330
1F
100
AcDbEntity
  8
101
  6
Continuous
 62
     7
370
    30
100
AcDbLine
 10
123.668694227551
 20
169.0831532348016
 30
0.0
 11
122.0777851366419
 21
173.2308805075289
 31
0.0
  0
LINE
  5
152
330
1F
100
AcDbEntity
  8
101
  6
Continuous
 62
     7
370
    30
100
AcDbLine
 10
122.0777851366419
 20
173.2308805075289
 30
0.0
 11
119.4073305911873
 21
177.6626986893471
 31
0.0
  0
LINE
  5
153
330
1F
100
AcDbEntity
  8
101
  6
Continuous
 62
     7
370
    30
100
AcDbLine
 10
119.4073305911873
 20
177.6626986893471
 30
0.0
 11
116.2255124093691
 21
181.5831532348016
 31
0.0
  0
LINE
  5
154
330
1F
100
AcDbEntity
  8
101
  6
Continuous
 62
     7
370
    30
100
AcDbLine
 10
116.2255124093691
 20
181.5831532348016
 30
0.0
 11
111.3391487730055
 21
185.5604259620744
 31
0.0
  0
LINE
  5
155
330
1F
100
AcDbEntity
  8
101
  6
Continuous
 62
     7
370
    30
100
AcDbLine
 10
111.3391487730055
 20
185.5604259620744
 30
0.0
 11
108.1431260457328
 21
187.4070168711653
 31
0.0
  0
LINE
  5
156
330
1F
100
AcDbEntity
  8
101
  6
Continuous
 62
     7
370
    30
100
AcDbLine
 10
108.1431260457328
 20
187.4070168711653
 30
0.0
 11
105.4016487730055
 21
188.728039598438
 31
0.0
  0
LINE
  5
157
330
1F
100
AcDbEntity
  8
101
  6
Continuous
 62
     7
370
    30
100
AcDbLine
 10
105.4016487730055
 20
188.728039598438
 30
0.0
 11
102.3192624093691
 21
189.9212214166199
 31
0.0
  0
LINE
  5
158
330
1F
100
AcDbEntity
  8
101
  6
Continuous
 62
     7
370
    30
100
AcDbLine
 10
102.3192624093691
 20
189.9212214166199
 30
0.0
 11
100.1743760457327
 21
190.7734941438924
 31
0.0
  0
LINE
  5
159
330
1F
100
AcDbEntity
  8
101
  6
Continuous
 62
     7
370
    30
100
AcDbLine
 10
100.1743760457327
 20
190.7734941438924
 30
0.0
 11
97.85903513664181
 21
191.5689486893469
 31
0.0
  0
LINE
  5
15A
330
1F
100
AcDbEntity
  8
101
  6
Continuous
 62
     7
370
    30
100
AcDbLine
 10
97.85903513664181
 20
191.5689486893469
 30
0.0
 11
94.3363078639145
 21
192.1513350529833
 31
0.0
  0
LINE
  5
15B
330
1F
100
AcDbEntity
  8
101
  6
Continuous
 62
     7
370
    30
100
AcDbLine
 10
94.3363078639145
 20
192.1513350529833
 30
0.0
 11
91.8363078639145
 21
192.2933805075288
 31
0.0
  0
LINE
  5
15C
330
1F
100
AcDbEntity
  8
101
  6
Continuous
 62
     7
370
    30
100
AcDbLine
 10
91.8363078639145
 20
192.2933805075288
 30
0.0
 11
88.48403513664175
 21
192.4070168711651
 31
0.0
  0
LINE
  5
15D
330
1F
100
AcDbEntity
  8
101
  6
Continuous
 62
     7
370
    30
100
AcDbLine
 10
88.48403513664175
 20
192.4070168711651
 30
0.0
 11
85.01812604573269
 21
192.2933805075288
 31
0.0
  0
LINE
  5
15E
330
1F
100
AcDbEntity
  8
101
  6
Continuous
 62
     7
370
    30
100
AcDbLine
 10
85.01812604573269
 20
192.2933805075288
 30
0.0
 11
81.89312604573266
 21
191.8388350529833
 31
0.0
  0
LINE
  5
15F
330
1F
100
AcDbEntity
  8
101
  6
Continuous
 62
     7
370
    30
100
AcDbLine
 10
81.89312604573266
 20
191.8388350529833
 30
0.0
 11
79.44994422755084
 21
191.441107780256
 31
0.0
  0
LINE
  5
160
330
1F
100
AcDbEntity
  8
101
  6
Continuous
 62
     7
370
    30
100
AcDbLine
 10
79.44994422755084
 20
191.441107780256
 30
0.0
 11
77.91585331845994
 21
190.9865623257106
 31
0.0
  0
LINE
  5
161
330
1F
100
AcDbEntity
  8
101
  6
Continuous
 62
     7
370
    30
100
AcDbLine
 10
77.91585331845994
 20
190.9865623257106
 30
0.0
 11
76.02170811942784
 21
190.2549327101736
 31
0.0
  0
LINE
  5
162
330
1F
100
AcDbEntity
  8
101
  6
Continuous
 62
     7
370
    30
100
AcDbLine
 10
96.89280963993656
 20
200.2855445364434
 30
0.0
 11
98.28517150027812
 21
198.5007668711652
 31
0.0
  0
LINE
  5
163
330
1F
100
AcDbEntity
  8
101
  6
Continuous
 62
     7
370
    30
100
AcDbLine
 10
98.28517150027812
 20
198.5007668711652
 30
0.0
 11
99.27948968209631
 21
196.9808805075288
 31
0.0
  0
LINE
  5
164
330
1F
100
AcDbEntity
  8
101
  6
Continuous
 62
     7
370
    30
100
AcDbLine
 10
99.27948968209631
 20
196.9808805075288
 30
0.0
 11
100.3022169548236
 21
195.1342895984379
 31
0.0
  0
LINE
  5
165
330
1F
100
AcDbEntity
  8
101
  6
Continuous
 62
     7
370
    30
100
AcDbLine
 10
100.3022169548236
 20
195.1342895984379
 30
0.0
 11
101.1828987730054
 21
193.5433805075289
 31
0.0
  0
LINE
  5
166
330
1F
100
AcDbEntity
  8
101
  6
Continuous
 62
     7
370
    30
100
AcDbLine
 10
101.1828987730054
 20
193.5433805075289
 30
0.0
 11
101.8647169548236
 21
191.9240623257107
 31
0.0
  0
LINE
  5
167
330
1F
100
AcDbEntity
  8
101
  6
Continuous
 62
     7
370
    30
100
AcDbLine
 10
101.8647169548236
 20
191.9240623257107
 30
0.0
 11
102.2198305911872
 21
190.759289598438
 31
0.0
  0
LINE
  5
168
330
1F
100
AcDbEntity
  8
101
  6
Continuous
 62
     7
370
    30
100
AcDbLine
 10
102.2198305911872
 20
190.759289598438
 30
0.0
 11
102.3192624093691
 21
189.9212214166199
 31
0.0
  0
LINE
  5
169
330
1F
100
AcDbEntity
  8
101
  6
Continuous
 62
     7
370
    30
100
AcDbLine
 10
97.85903513664181
 20
191.5689486893469
 30
0.0
 11
97.17721695482356
 21
192.8899714166197
 31
0.0
  0
LINE
  5
16A
330
1F
100
AcDbEntity
  8
101
  6
Continuous
 62
     7
370
    30
100
AcDbLine
 10
97.17721695482356
 20
192.8899714166197
 30
0.0
 11
96.43858059118719
 21
194.4524714166197
 31
0.0
  0
LINE
  5
16B
330
1F
100
AcDbEntity
  8
101
  6
Continuous
 62
     7
370
    30
100
AcDbLine
 10
96.43858059118719
 20
194.4524714166197
 30
0.0
 11
95.40164877300538
 21
196.1428123257107
 31
0.0
  0
LINE
  5
16C
330
1F
100
AcDbEntity
  8
101
  6
Continuous
 62
     7
370
    30
100
AcDbLine
 10
95.40164877300538
 20
196.1428123257107
 30
0.0
 11
94.52096695482356
 21
197.4496305075289
 31
0.0
  0
LINE
  5
16D
330
1F
100
AcDbEntity
  8
101
  6
Continuous
 62
     7
370
    30
100
AcDbLine
 10
94.52096695482356
 20
197.4496305075289
 30
0.0
 11
93.65448968209631
 21
198.5433805075289
 31
0.0
  0
LINE
  5
16E
330
1F
100
AcDbEntity
  8
101
  6
Continuous
 62
     7
370
    30
100
AcDbLine
 10
93.65448968209631
 20
198.5433805075289
 30
0.0
 11
93.00108059118733
 21
199.5234941438927
 31
0.0
  0
LINE
  5
16F
330
1F
100
AcDbEntity
  8
101
  6
Continuous
 62
     7
370
    30
100
AcDbLine
 10
70.2901430911871
 20
187.5057384620745
 30
0.0
 11
65.87039877300532
 21
184.7649714166199
 31
0.0
  0
LINE
  5
170
330
1F
100
AcDbEntity
  8
101
  6
Continuous
 62
     7
370
    30
100
AcDbLine
 10
65.87039877300532
 20
184.7649714166199
 30
0.0
 11
62.97267150027804
 21
182.2081532348017
 31
0.0
  0
LINE
  5
171
330
1F
100
AcDbEntity
  8
101
  6
Continuous
 62
     7
370
    30
100
AcDbLine
 10
62.97267150027804
 20
182.2081532348017
 30
0.0
 11
59.16585331845985
 21
178.3161077802562
 31
0.0
  0
LINE
  5
172
330
1F
100
AcDbEntity
  8
101
  6
Continuous
 62
     7
370
    30
100
AcDbLine
 10
59.16585331845985
 20
178.3161077802562
 30
0.0
 11
56.83630786391439
 21
174.8217895984381
 31
0.0
  0
LINE
  5
173
330
1F
100
AcDbEntity
  8
101
  6
Continuous
 62
     7
370
    30
100
AcDbLine
 10
56.83630786391439
 20
174.8217895984381
 30
0.0
 11
55.5294896820962
 21
171.980880507529
 31
0.0
  0
LINE
  5
174
330
1F
100
AcDbEntity
  8
101
  6
Continuous
 62
     7
370
    30
100
AcDbLine
 10
55.5294896820962
 20
171.980880507529
 30
0.0
 11
54.10903513664167
 21
167.6626986893472
 31
0.0
  0
LINE
  5
175
330
1F
100
AcDbEntity
  8
101
  6
Continuous
 62
     7
370
    30
100
AcDbLine
 10
54.10903513664167
 20
167.6626986893472
 30
0.0
 11
53.17153513664167
 21
163.5149714166199
 31
0.0
  0
LINE
  5
176
330
1F
100
AcDbEntity
  8
101
  6
Continuous
 62
     7
370
    30
100
AcDbLine
 10
53.17153513664167
 20
163.5149714166199
 30
0.0
 11
52.71698968209623
 21
160.1626986893472
 31
0.0
  0
LINE
  5
177
330
1F
100
AcDbEntity
  8
101
  6
Continuous
 62
     7
370
    30
100
AcDbLine
 10
129.454508258099
 20
146.8391179963403
 30
0.0
 11
126.6232396820965
 21
147.5774714166199
 31
0.0
  0
LINE
  5
178
330
1F
100
AcDbEntity
  8
101
  6
Continuous
 62
     7
370
    30
100
AcDbLine
 10
126.6232396820965
 20
142.8047441438926
 30
0.0
 11
129.4983097249993
 21
142.0661553162983
 31
0.0
  0
LINE
  5
179
330
1F
100
AcDbEntity
  8
101
  6
Continuous
 62
     7
370
    30
100
AcDbLine
 10
52.37608059118719
 20
138.6570168711654
 30
0.0
 11
52.48971695482354
 21
152.0092895984381
 31
0.0
  0
LINE
  5
17A
330
1F
100
AcDbEntity
  8
101
  6
Continuous
 62
     7
370
    30
100
AcDbLine
 10
52.48971695482354
 20
152.0092895984381
 30
0.0
 11
52.71698968209623
 21
160.1626986893472
 31
0.0
  0
LINE
  5
17B
330
1F
100
AcDbEntity
  8
101
  6
Continuous
 62
     7
370
    30
100
AcDbLine
 10
52.71698968209623
 20
160.1626986893472
 30
0.0
 11
52.60335331845988
 21
166.32747141662
 31
0.0
  0
LINE
  5
17C
330
1F
100
AcDbEntity
  8
101
  6
Continuous
 62
     7
370
    30
100
AcDbLine
 10
52.60335331845988
 20
166.32747141662
 30
0.0
 11
53.11471695482351
 21
170.5888350529836
 31
0.0
  0
LINE
  5
17D
330
1F
100
AcDbEntity
  8
101
  6
Continuous
 62
     7
370
    30
100
AcDbLine
 10
53.11471695482351
 20
170.5888350529836
 30
0.0
 11
54.30789877300535
 21
174.9638350529836
 31
0.0
  0
LINE
  5
17E
330
1F
100
AcDbEntity
  8
101
  6
Continuous
 62
     7
370
    30
100
AcDbLine
 10
54.30789877300535
 20
174.9638350529836
 30
0.0
 11
55.72835331845991
 21
178.6001986893473
 31
0.0
  0
LINE
  5
17F
330
1F
100
AcDbEntity
  8
101
  6
Continuous
 62
     7
370
    30
100
AcDbLine
 10
55.72835331845991
 20
178.6001986893473
 30
0.0
 11
57.54653513664172
 21
181.8388350529837
 31
0.0
  0
LINE
  5
180
330
1F
100
AcDbEntity
  8
101
  6
Continuous
 62
     7
370
    30
100
AcDbLine
 10
57.54653513664172
 20
181.8388350529837
 30
0.0
 11
59.59198968209625
 21
185.5888350529837
 31
0.0
  0
LINE
  5
181
330
1F
100
AcDbEntity
  8
101
  6
Continuous
 62
     7
370
    30
100
AcDbLine
 10
59.59198968209625
 20
185.5888350529837
 30
0.0
 11
62.37608059118719
 21
188.82747141662
 31
0.0
  0
LINE
  5
182
330
1F
100
AcDbEntity
  8
101
  6
Continuous
 62
     7
370
    30
100
AcDbLine
 10
62.37608059118719
 20
188.82747141662
 30
0.0
 11
65.4726715002781
 21
191.5547441438928
 31
0.0
  0
LINE
  5
183
330
1F
100
AcDbEntity
  8
101
  6
Continuous
 62
     7
370
    30
100
AcDbLine
 10
65.4726715002781
 20
191.5547441438928
 30
0.0
 11
68.22835331845991
 21
193.6854259620746
 31
0.0
  0
LINE
  5
184
330
1F
100
AcDbEntity
  8
101
  6
Continuous
 62
     7
370
    30
100
AcDbLine
 10
68.22835331845991
 20
193.6854259620746
 30
0.0
 11
71.43858059118719
 21
195.7308805075292
 31
0.0
  0
LINE
  5
185
330
1F
100
AcDbEntity
  8
101
  6
Continuous
 62
     7
370
    30
100
AcDbLine
 10
71.43858059118719
 20
195.7308805075292
 30
0.0
 11
75.35903513664175
 21
198.3658236893475
 31
0.0
  0
LINE
  5
186
330
1F
100
AcDbEntity
  8
101
  6
Continuous
 62
     7
370
    30
100
AcDbLine
 10
80.23000092931332
 20
203.5829235837939
 30
0.0
 11
79.10903513664175
 21
203.6854259620747
 31
0.0
  0
LINE
  5
187
330
1F
100
AcDbEntity
  8
101
  6
Continuous
 62
     7
370
    30
100
AcDbLine
 10
79.10903513664175
 20
203.6854259620747
 30
0.0
 11
77.80221695482356
 21
203.5149714166201
 31
0.0
  0
LINE
  5
188
330
1F
100
AcDbEntity
  8
101
  6
Continuous
 62
     7
370
    30
100
AcDbLine
 10
77.80221695482356
 20
203.5149714166201
 30
0.0
 11
74.62039877300538
 21
202.1797441438929
 31
0.0
  0
LINE
  5
189
330
1F
100
AcDbEntity
  8
101
  6
Continuous
 62
     7
370
    30
100
AcDbLine
 10
74.62039877300538
 20
202.1797441438929
 30
0.0
 11
68.9101715002781
 21
198.9979259620747
 31
0.0
  0
LINE
  5
18A
330
1F
100
AcDbEntity
  8
101
  6
Continuous
 62
     7
370
    30
100
AcDbLine
 10
68.9101715002781
 20
198.9979259620747
 30
0.0
 11
63.82494422755082
 21
195.2479259620747
 31
0.0
  0
LINE
  5
18B
330
1F
100
AcDbEntity
  8
101
  6
Continuous
 62
     7
370
    30
100
AcDbLine
 10
63.82494422755082
 20
195.2479259620747
 30
0.0
 11
60.61471695482354
 21
192.6342895984383
 31
0.0
  0
LINE
  5
18C
330
1F
100
AcDbEntity
  8
101
  6
Continuous
 62
     7
370
    30
100
AcDbLine
 10
60.61471695482354
 20
192.6342895984383
 30
0.0
 11
58.39880786391444
 21
190.3615623257111
 31
0.0
  0
LINE
  5
18D
330
1F
100
AcDbEntity
  8
101
  6
Continuous
 62
     7
370
    30
100
AcDbLine
 10
58.39880786391444
 20
190.3615623257111
 30
0.0
 11
56.72267150027807
 21
188.0888350529838
 31
0.0
  0
LINE
  5
18E
330
1F
100
AcDbEntity
  8
101
  6
Continuous
 62
     7
370
    30
100
AcDbLine
 10
56.72267150027807
 20
188.0888350529838
 30
0.0
 11
54.7056260457326
 21
184.9070168711656
 31
0.0
  0
LINE
  5
18F
330
1F
100
AcDbEntity
  8
101
  6
Continuous
 62
     7
370
    30
100
AcDbLine
 10
54.7056260457326
 20
184.9070168711656
 30
0.0
 11
53.00108059118716
 21
181.7820168711656
 31
0.0
  0
LINE
  5
190
330
1F
100
AcDbEntity
  8
101
  6
Continuous
 62
     7
370
    30
100
AcDbLine
 10
53.00108059118716
 20
181.7820168711656
 30
0.0
 11
51.75108059118713
 21
178.9979259620747
 31
0.0
  0
LINE
  5
191
330
1F
100
AcDbEntity
  8
101
  6
Continuous
 62
     7
370
    30
100
AcDbLine
 10
51.75108059118713
 20
178.9979259620747
 30
0.0
 11
50.92721695482351
 21
176.4979259620747
 31
0.0
  0
LINE
  5
192
330
1F
100
AcDbEntity
  8
101
  6
Continuous
 62
     7
370
    30
100
AcDbLine
 10
50.92721695482351
 20
176.4979259620747
 30
0.0
 11
49.84767150027807
 21
172.4638350529838
 31
0.0
  0
LINE
  5
193
330
1F
100
AcDbEntity
  8
101
  6
Continuous
 62
     7
370
    30
100
AcDbLine
 10
49.84767150027807
 20
172.4638350529838
 30
0.0
 11
49.22267150027807
 21
168.0320168711655
 31
0.0
  0
LINE
  5
194
330
1F
100
AcDbEntity
  8
101
  6
Continuous
 62
     7
370
    30
100
AcDbLine
 10
49.22267150027807
 20
168.0320168711655
 30
0.0
 11
48.96698968209623
 21
162.4922441438928
 31
0.0
  0
LINE
  5
195
330
1F
100
AcDbEntity
  8
101
  6
Continuous
 62
     7
370
    30
100
AcDbLine
 10
48.96698968209623
 20
162.4922441438928
 30
0.0
 11
48.91017150027807
 21
156.2422441438927
 31
0.0
  0
LINE
  5
196
330
1F
100
AcDbEntity
  8
101
  6
Continuous
 62
     7
370
    30
100
AcDbLine
 10
48.91017150027807
 20
156.2422441438927
 30
0.0
 11
48.79653513664169
 21
147.0092895984382
 31
0.0
  0
LINE
  5
197
330
1F
100
AcDbEntity
  8
101
  6
Continuous
 62
     7
370
    30
100
AcDbLine
 10
48.79653513664169
 20
147.0092895984382
 30
0.0
 11
48.88176240936895
 21
139.2820168711654
 31
0.0
  0
LINE
  5
198
330
1F
100
AcDbEntity
  8
101
  6
Continuous
 62
     7
370
    30
100
AcDbLine
 10
133.5266487730057
 20
145.9155395984387
 30
0.0
 11
135.8703987730055
 21
144.8217895984382
 31
0.0
  0
LINE
  5
199
330
1F
100
AcDbEntity
  8
101
  6
Continuous
 62
     7
370
    30
100
AcDbLine
 10
135.8703987730055
 20
144.8217895984382
 30
0.0
 11
137.0067624093692
 21
144.1115623257109
 31
0.0
  0
LINE
  5
19A
330
1F
100
AcDbEntity
  8
101
  6
Continuous
 62
     7
370
    30
100
AcDbLine
 10
137.0067624093692
 20
144.1115623257109
 30
0.0
 11
138.0294896820964
 21
143.2308805075291
 31
0.0
  0
LINE
  5
19B
330
1F
100
AcDbEntity
  8
101
  6
Continuous
 62
     7
370
    30
100
AcDbLine
 10
138.0294896820964
 20
143.2308805075291
 30
0.0
 11
138.6544896820965
 21
142.3786077802563
 31
0.0
  0
LINE
  5
19C
330
1F
100
AcDbEntity
  8
101
  6
Continuous
 62
     7
370
    30
100
AcDbLine
 10
138.6544896820965
 20
142.3786077802563
 30
0.0
 11
138.7965351366419
 21
141.32747141662
 31
0.0
  0
LINE
  5
19D
330
1F
100
AcDbEntity
  8
101
  6
Continuous
 62
     7
370
    30
100
AcDbLine
 10
138.7965351366419
 20
141.32747141662
 30
0.0
 11
138.6828987730055
 21
139.9638350529836
 31
0.0
  0
LINE
  5
19E
330
1F
100
AcDbEntity
  8
101
  6
Continuous
 62
     7
370
    30
100
AcDbLine
 10
138.6828987730055
 20
139.9638350529836
 30
0.0
 11
138.5124442275509
 21
138.7990623257108
 31
0.0
  0
LINE
  5
19F
330
1F
100
AcDbEntity
  8
101
  6
Continuous
 62
     7
370
    30
100
AcDbLine
 10
138.5124442275509
 20
138.7990623257108
 30
0.0
 11
138.0578987730055
 21
138.0320168711654
 31
0.0
  0
LINE
  5
1A0
330
1F
100
AcDbEntity
  8
101
  6
Continuous
 62
     7
370
    30
100
AcDbLine
 10
138.0578987730055
 20
138.0320168711654
 30
0.0
 11
136.9499442275509
 21
137.1229259620745
 31
0.0
  0
LINE
  5
1A1
330
1F
100
AcDbEntity
  8
101
  6
Continuous
 62
     7
370
    30
100
AcDbLine
 10
136.9499442275509
 20
137.1229259620745
 30
0.0
 11
135.6999442275509
 21
136.043380507529
 31
0.0
  0
LINE
  5
1A2
330
1F
100
AcDbEntity
  8
101
  6
Continuous
 62
     7
370
    30
100
AcDbLine
 10
135.6999442275509
 20
136.043380507529
 30
0.0
 11
133.6544896820964
 21
135.2763350529836
 31
0.0
  0
LINE
  5
1A3
330
1F
100
AcDbEntity
  8
101
  6
Continuous
 62
     7
370
    30
100
AcDbLine
 10
133.6544896820964
 20
135.2763350529836
 30
0.0
 11
129.5919896820964
 21
134.0547441438927
 31
0.0
  0
LINE
  5
1A4
330
1F
100
AcDbEntity
  8
101
  6
Continuous
 62
     7
370
    30
100
AcDbLine
 10
129.5919896820964
 20
134.0547441438927
 30
0.0
 11
124.9328987730055
 21
132.918380507529
 31
0.0
  0
LINE
  5
1A5
330
1F
100
AcDbEntity
  8
101
  6
Continuous
 62
     7
370
    30
100
AcDbLine
 10
124.9328987730055
 20
132.918380507529
 30
0.0
 11
120.5578987730055
 21
132.2365623257108
 31
0.0
  0
LINE
  5
1A6
330
1F
100
AcDbEntity
  8
101
  6
Continuous
 62
     7
370
    30
100
AcDbLine
 10
120.5578987730055
 20
132.2365623257108
 30
0.0
 11
116.35335331846
 21
131.7251986893472
 31
0.0
  0
LINE
  5
1A7
330
1F
100
AcDbEntity
  8
101
  6
Continuous
 62
     7
370
    30
100
AcDbLine
 10
116.35335331846
 20
131.7251986893472
 30
0.0
 11
111.35335331846
 21
131.1286077802563
 31
0.0
  0
LINE
  5
1A8
330
1F
100
AcDbEntity
  8
101
  6
Continuous
 62
     7
370
    30
100
AcDbLine
 10
111.35335331846
 20
131.1286077802563
 30
0.0
 11
106.5806260457327
 21
130.8445168711654
 31
0.0
  0
LINE
  5
1A9
330
1F
100
AcDbEntity
  8
101
  6
Continuous
 62
     7
370
    30
100
AcDbLine
 10
106.5806260457327
 20
130.8445168711654
 30
0.0
 11
99.36471695482362
 21
130.6456532348017
 31
0.0
  0
LINE
  5
1AA
330
1F
100
AcDbEntity
  8
101
  6
Continuous
 62
     7
370
    30
100
AcDbLine
 10
99.36471695482362
 20
130.6456532348017
 30
0.0
 11
92.23403513664175
 21
130.5036077802563
 31
0.0
  0
LINE
  5
1AB
330
1F
100
AcDbEntity
  8
101
  6
Continuous
 62
     7
370
    30
100
AcDbLine
 10
92.23403513664175
 20
130.5036077802563
 30
0.0
 11
84.0238078639145
 21
130.5036077802563
 31
0.0
  0
LINE
  5
1AC
330
1F
100
AcDbEntity
  8
101
  6
Continuous
 62
     7
370
    30
100
AcDbLine
 10
84.0238078639145
 20
130.5036077802563
 30
0.0
 11
77.85903513664175
 21
130.730880507529
 31
0.0
  0
LINE
  5
1AD
330
1F
100
AcDbEntity
  8
101
  6
Continuous
 62
     7
370
    30
100
AcDbLine
 10
77.85903513664175
 20
130.730880507529
 30
0.0
 11
71.26812604573263
 21
130.9865623257108
 31
0.0
  0
LINE
  5
1AE
330
1F
100
AcDbEntity
  8
101
  6
Continuous
 62
     7
370
    30
100
AcDbLine
 10
71.26812604573263
 20
130.9865623257108
 30
0.0
 11
64.67721695482354
 21
131.4979259620745
 31
0.0
  0
LINE
  5
1AF
330
1F
100
AcDbEntity
  8
101
  6
Continuous
 62
     7
370
    30
100
AcDbLine
 10
64.67721695482354
 20
131.4979259620745
 30
0.0
 11
56.77948968209625
 21
132.5490623257108
 31
0.0
  0
LINE
  5
1B0
330
1F
100
AcDbEntity
  8
101
  6
Continuous
 62
     7
370
    30
100
AcDbLine
 10
56.77948968209625
 20
132.5490623257108
 30
0.0
 11
51.35335331845988
 21
133.6001986893472
 31
0.0
  0
LINE
  5
1B1
330
1F
100
AcDbEntity
  8
101
  6
Continuous
 62
     7
370
    30
100
AcDbLine
 10
51.35335331845988
 20
133.6001986893472
 30
0.0
 11
46.92153513664169
 21
134.8786077802563
 31
0.0
  0
LINE
  5
1B2
330
1F
100
AcDbEntity
  8
101
  6
Continuous
 62
     7
370
    30
100
AcDbLine
 10
46.92153513664169
 20
134.8786077802563
 30
0.0
 11
43.85335331845985
 21
135.9013350529836
 31
0.0
  0
LINE
  5
1B3
330
1F
100
AcDbEntity
  8
101
  6
Continuous
 62
     7
370
    30
100
AcDbLine
 10
43.85335331845985
 20
135.9013350529836
 30
0.0
 11
41.83630786391439
 21
137.0092895984382
 31
0.0
  0
LINE
  5
1B4
330
1F
100
AcDbEntity
  8
101
  6
Continuous
 62
     7
370
    30
100
AcDbLine
 10
41.83630786391439
 20
137.0092895984382
 30
0.0
 11
40.35903513664167
 21
138.0320168711655
 31
0.0
  0
LINE
  5
1B5
330
1F
100
AcDbEntity
  8
101
  6
Continuous
 62
     7
370
    30
100
AcDbLine
 10
40.35903513664167
 20
138.0320168711655
 30
0.0
 11
39.16585331845985
 21
139.1683805075291
 31
0.0
  0
LINE
  5
1B6
330
1F
100
AcDbEntity
  8
101
  6
Continuous
 62
     7
370
    30
100
AcDbLine
 10
39.16585331845985
 20
139.1683805075291
 30
0.0
 11
38.76812604573257
 21
140.0206532348018
 31
0.0
  0
LINE
  5
1B7
330
1F
100
AcDbEntity
  8
101
  6
Continuous
 62
     7
370
    30
100
AcDbLine
 10
38.76812604573257
 20
140.0206532348018
 30
0.0
 11
38.73971695482348
 21
142.0661077802563
 31
0.0
  0
LINE
  5
1B8
330
1F
100
AcDbEntity
  8
101
  6
Continuous
 62
     7
370
    30
100
AcDbLine
 10
38.73971695482348
 20
142.0661077802563
 30
0.0
 11
39.22267150027801
 21
143.6570168711655
 31
0.0
  0
LINE
  5
1B9
330
1F
100
AcDbEntity
  8
101
  6
Continuous
 62
     7
370
    30
100
AcDbLine
 10
39.22267150027801
 20
143.6570168711655
 30
0.0
 11
40.64312604573257
 21
144.7365623257108
 31
0.0
  0
LINE
  5
1BA
330
1F
100
AcDbEntity
  8
101
  6
Continuous
 62
     7
370
    30
100
AcDbLine
 10
40.64312604573257
 20
144.7365623257108
 30
0.0
 11
43.0294896820962
 21
145.9297441438927
 31
0.0
  0
LINE
  5
1BB
330
1F
100
AcDbEntity
  8
101
  6
Continuous
 62
     7
370
    30
100
AcDbLine
 10
43.0294896820962
 20
145.9297441438927
 30
0.0
 11
44.90448968209623
 21
146.6967895984382
 31
0.0
  0
LINE
  5
1BC
330
1F
100
AcDbEntity
  8
101
  6
Continuous
 62
     7
370
    30
100
AcDbLine
 10
44.90448968209623
 20
146.6967895984382
 30
0.0
 11
47.03517150027804
 21
147.3501986893472
 31
0.0
  0
LINE
  5
1BD
330
1F
100
AcDbEntity
  8
101
  6
Continuous
 62
     7
370
    30
100
AcDbLine
 10
47.03517150027804
 20
147.3501986893472
 30
0.0
 11
48.80562466885669
 21
147.7478140909088
 31
0.0
  0
LINE
  5
1BE
330
1F
100
AcDbEntity
  8
101
  6
Continuous
 62
     7
370
    30
100
AcDbLine
 10
48.84134012740861
 20
142.9469704355689
 30
0.0
 11
48.11471695482351
 21
143.0036077802563
 31
0.0
  0
LINE
  5
1BF
330
1F
100
AcDbEntity
  8
101
  6
Continuous
 62
     7
370
    30
100
AcDbLine
 10
48.11471695482351
 20
143.0036077802563
 30
0.0
 11
46.86471695482351
 21
142.5206532348017
 31
0.0
  0
LINE
  5
1C0
330
1F
100
AcDbEntity
  8
101
  6
Continuous
 62
     7
370
    30
100
AcDbLine
 10
46.86471695482351
 20
142.5206532348017
 30
0.0
 11
45.69994422755076
 21
142.0945168711654
 31
0.0
  0
LINE
  5
1C1
330
1F
100
AcDbEntity
  8
101
  6
Continuous
 62
     7
370
    30
100
AcDbLine
 10
45.69994422755076
 20
142.0945168711654
 30
0.0
 11
44.98971695482351
 21
141.668380507529
 31
0.0
  0
LINE
  5
1C2
330
1F
100
AcDbEntity
  8
101
  6
Continuous
 62
     7
370
    30
100
AcDbLine
 10
44.98971695482351
 20
141.668380507529
 30
0.0
 11
44.49255786391441
 21
141.1286077802563
 31
0.0
  0
LINE
  5
1C3
330
1F
100
AcDbEntity
  8
101
  6
Continuous
 62
     7
370
    30
100
AcDbLine
 10
44.49255786391441
 20
141.1286077802563
 30
0.0
 11
44.42153513664167
 21
140.887130507529
 31
0.0
  0
LINE
  5
1C4
330
1F
100
AcDbEntity
  8
101
  6
Continuous
 62
     7
370
    30
100
AcDbLine
 10
44.39312604573257
 20
141.95247141662
 30
0.0
 11
43.85335331845985
 21
141.668380507529
 31
0.0
  0
LINE
  5
1C5
330
1F
100
AcDbEntity
  8
101
  6
Continuous
 62
     7
370
    30
100
AcDbLine
 10
43.85335331845985
 20
141.668380507529
 30
0.0
 11
43.85335331845985
 21
141.2564486893472
 31
0.0
  0
LINE
  5
1C6
330
1F
100
AcDbEntity
  8
101
  6
Continuous
 62
     7
370
    30
100
AcDbLine
 10
43.85335331845985
 20
141.2564486893472
 30
0.0
 11
44.42153513664167
 21
140.887130507529
 31
0.0
  0
LINE
  5
1C7
330
1F
100
AcDbEntity
  8
101
  6
Continuous
 62
     7
370
    30
100
AcDbLine
 10
44.42153513664167
 20
140.887130507529
 30
0.0
 11
45.50108059118713
 21
140.3189486893472
 31
0.0
  0
LINE
  5
1C8
330
1F
100
AcDbEntity
  8
101
  6
Continuous
 62
     7
370
    30
100
AcDbLine
 10
45.50108059118713
 20
140.3189486893472
 30
0.0
 11
46.93573968209623
 21
139.8217895984381
 31
0.0
  0
LINE
  5
1C9
330
1F
100
AcDbEntity
  8
101
  6
Continuous
 62
     7
370
    30
100
AcDbLine
 10
46.93573968209623
 20
139.8217895984381
 30
0.0
 11
48.88176240936895
 21
139.2820168711654
 31
0.0
  0
LINE
  5
1CA
330
1F
100
AcDbEntity
  8
101
  6
Continuous
 62
     7
370
    30
100
AcDbLine
 10
48.88176240936895
 20
139.2820168711654
 30
0.0
 11
52.39028513664169
 21
138.3729259620744
 31
0.0
  0
LINE
  5
1CB
330
1F
100
AcDbEntity
  8
101
  6
Continuous
 62
     7
370
    30
100
AcDbLine
 10
52.39028513664169
 20
138.3729259620744
 30
0.0
 11
52.37608059118719
 21
138.6570168711654
 31
0.0
  0
LINE
  5
1CC
330
1F
100
AcDbEntity
  8
101
  6
Continuous
 62
     7
370
    30
100
AcDbLine
 10
52.37608059118719
 20
138.6570168711654
 30
0.0
 11
52.39028513664169
 21
138.3729259620744
 31
0.0
  0
LINE
  5
1CD
330
1F
100
AcDbEntity
  8
101
  6
Continuous
 62
     7
370
    30
100
AcDbLine
 10
52.39028513664169
 20
138.3729259620744
 30
0.0
 11
55.87039877300535
 21
137.7479259620745
 31
0.0
  0
LINE
  5
1CE
330
1F
100
AcDbEntity
  8
101
  6
Continuous
 62
     7
370
    30
100
AcDbLine
 10
55.87039877300535
 20
137.7479259620745
 30
0.0
 11
59.46414877300535
 21
137.3075850529835
 31
0.0
  0
LINE
  5
1CF
330
1F
100
AcDbEntity
  8
101
  6
Continuous
 62
     7
370
    30
100
AcDbLine
 10
59.46414877300535
 20
137.3075850529835
 30
0.0
 11
64.08062604573263
 21
136.8388350529835
 31
0.0
  0
LINE
  5
1D0
330
1F
100
AcDbEntity
  8
101
  6
Continuous
 62
     7
370
    30
100
AcDbLine
 10
64.08062604573263
 20
136.8388350529835
 30
0.0
 11
66.60903513664172
 21
136.7536077802562
 31
0.0
  0
LINE
  5
1D1
330
1F
100
AcDbEntity
  8
101
  6
Continuous
 62
     7
370
    30
100
AcDbLine
 10
66.60903513664172
 20
136.7536077802562
 30
0.0
 11
66.60903513664175
 21
136.9737782348019
 31
0.0
  0
LINE
  5
1D2
330
1F
100
AcDbEntity
  8
101
  6
Continuous
 62
     7
370
    30
100
AcDbLine
 10
66.60903513664175
 20
136.9737782348019
 30
0.0
 11
66.60903513664175
 21
136.7536077802562
 31
0.0
  0
LINE
  5
1D3
330
1F
100
AcDbEntity
  8
101
  6
Continuous
 62
     7
370
    30
100
AcDbLine
 10
66.60903513664175
 20
136.7536077802562
 30
0.0
 11
69.42153513664175
 21
136.3984941438926
 31
0.0
  0
LINE
  5
1D4
330
1F
100
AcDbEntity
  8
101
  6
Continuous
 62
     7
370
    30
100
AcDbLine
 10
69.42153513664175
 20
136.3984941438926
 30
0.0
 11
71.04085331845991
 21
136.0930964166201
 31
0.0
  0
LINE
  5
1D5
330
1F
100
AcDbEntity
  8
101
  6
Continuous
 62
     7
370
    30
100
AcDbLine
 10
71.04085331845991
 20
136.0930964166201
 30
0.0
 11
74.00960331845994
 21
136.1428123257107
 31
0.0
  0
LINE
  5
1D6
330
1F
100
AcDbEntity
  8
101
  6
Continuous
 62
     7
370
    30
100
AcDbLine
 10
74.00960331845994
 20
136.1428123257107
 30
0.0
 11
78.73971695482359
 21
135.8445168711653
 31
0.0
  0
LINE
  5
1D7
330
1F
100
AcDbEntity
  8
101
  6
Continuous
 62
     7
370
    30
100
AcDbLine
 10
78.73971695482359
 20
135.8445168711653
 30
0.0
 11
84.08062604573269
 21
135.759289598438
 31
0.0
  0
LINE
  5
1D8
330
1F
100
AcDbEntity
  8
101
  6
Continuous
 62
     7
370
    30
100
AcDbLine
 10
84.08062604573269
 20
135.759289598438
 30
0.0
 11
91.46698968209637
 21
135.574630507529
 31
0.0
  0
LINE
  5
1D9
330
1F
100
AcDbEntity
  8
101
  6
Continuous
 62
     7
370
    30
100
AcDbLine
 10
91.46698968209637
 20
135.574630507529
 30
0.0
 11
95.88460331846
 21
135.5888350529835
 31
0.0
  0
LINE
  5
1DA
330
1F
100
AcDbEntity
  8
101
  6
Continuous
 62
     7
370
    30
100
AcDbLine
 10
95.88460331846
 20
135.5888350529835
 30
0.0
 11
100.4300578639146
 21
135.7450850529835
 31
0.0
  0
LINE
  5
1DB
330
1F
100
AcDbEntity
  8
101
  6
Continuous
 62
     7
370
    30
100
AcDbLine
 10
100.4300578639146
 20
135.7450850529835
 30
0.0
 11
104.6630124093691
 21
135.9439486893472
 31
0.0
  0
LINE
  5
1DC
330
1F
100
AcDbEntity
  8
101
  6
Continuous
 62
     7
370
    30
100
AcDbLine
 10
104.6630124093691
 20
135.9439486893472
 30
0.0
 11
110.3448305911873
 21
136.071789598438
 31
0.0
  0
LINE
  5
1DD
330
1F
100
AcDbEntity
  8
101
  6
Continuous
 62
     7
370
    30
100
AcDbLine
 10
110.3448305911873
 20
136.071789598438
 30
0.0
 11
114.3505124093691
 21
136.3842895984381
 31
0.0
  0
LINE
  5
1DE
330
1F
100
AcDbEntity
  8
101
  6
Continuous
 62
     7
370
    30
100
AcDbLine
 10
114.3505124093691
 20
136.3842895984381
 30
0.0
 11
118.2993760457328
 21
136.7394032348017
 31
0.0
  0
LINE
  5
1DF
330
1F
100
AcDbEntity
  8
101
  6
Continuous
 62
     7
370
    30
100
AcDbLine
 10
118.2993760457328
 20
136.7394032348017
 30
0.0
 11
123.5266487730055
 21
137.5348577802563
 31
0.0
  0
LINE
  5
1E0
330
1F
100
AcDbEntity
  8
101
  6
Continuous
 62
     7
370
    30
100
AcDbLine
 10
123.5266487730055
 20
137.5348577802563
 30
0.0
 11
126.6232396820965
 21
138.2308805075288
 31
0.0
  0
LINE
  5
1E1
330
1F
100
AcDbEntity
  8
101
  6
Continuous
 62
     7
370
    30
100
AcDbLine
 10
126.6232396820965
 20
138.2308805075288
 30
0.0
 11
129.5209669548239
 21
139.3246305075295
 31
0.0
  0
LINE
  5
1E2
330
1F
100
AcDbEntity
  8
101
  6
Continuous
 62
     7
370
    30
100
AcDbLine
 10
129.5209669548239
 20
139.3246305075295
 30
0.0
 11
131.949944227551
 21
139.9780395984382
 31
0.0
  0
LINE
  5
1E3
330
1F
100
AcDbEntity
  8
101
  6
Continuous
 62
     7
370
    30
100
AcDbLine
 10
131.949944227551
 20
139.9780395984382
 30
0.0
 11
133.5550578639148
 21
140.5462214166204
 31
0.0
  0
LINE
  5
1E4
330
1F
100
AcDbEntity
  8
101
  6
Continuous
 62
     7
370
    30
100
AcDbLine
 10
133.5550578639148
 20
140.5462214166204
 30
0.0
 11
134.137444227551
 21
141.0717895984382
 31
0.0
  0
LINE
  5
1E5
330
1F
100
AcDbEntity
  8
101
  6
Continuous
 62
     7
370
    30
100
AcDbLine
 10
49.12634829037091
 20
134.2426039859113
 30
0.0
 11
50.07494422755084
 21
96.96667596207448
 31
0.0
  0
LINE
  5
1E6
330
1F
100
AcDbEntity
  8
101
  6
Continuous
 62
     7
370
    30
100
AcDbLine
 10
52.28611834488001
 20
133.4195059878941
 30
0.0
 11
52.36187604573269
 21
89.8217895984381
 31
0.0
  0
LINE
  5
1E7
330
1F
100
AcDbEntity
  8
101
  6
Continuous
 62
     7
370
    30
100
AcDbLine
 10
52.36187604573269
 20
89.8217895984381
 30
0.0
 11
51.79369422755084
 21
89.08315323480173
 31
0.0
  0
LINE
  5
1E8
330
1F
100
AcDbEntity
  8
101
  6
Continuous
 62
     7
370
    30
100
AcDbLine
 10
52.34983073039533
 20
96.75373494510103
 30
0.0
 11
51.79369422755084
 21
96.32747141661991
 31
0.0
  0
LINE
  5
1E9
330
1F
100
AcDbEntity
  8
101
  6
Continuous
 62
     7
370
    30
100
AcDbLine
 10
51.79369422755084
 20
96.32747141661991
 30
0.0
 11
51.18289877300541
 21
96.32747141661994
 31
0.0
  0
LINE
  5
1EA
330
1F
100
AcDbEntity
  8
101
  6
Continuous
 62
     7
370
    30
100
AcDbLine
 10
51.18289877300541
 20
96.32747141661994
 30
0.0
 11
50.67153513664175
 21
96.54053959843813
 31
0.0
  0
LINE
  5
1EB
330
1F
100
AcDbEntity
  8
101
  6
Continuous
 62
     7
370
    30
100
AcDbLine
 10
50.67153513664175
 20
96.54053959843813
 30
0.0
 11
50.31642150027812
 21
96.73940323480176
 31
0.0
  0
LINE
  5
1EC
330
1F
100
AcDbEntity
  8
101
  6
Continuous
 62
     7
370
    30
100
AcDbLine
 10
50.31642150027812
 20
96.73940323480176
 30
0.0
 11
50.07494422755084
 21
96.96667596207448
 31
0.0
  0
LINE
  5
1ED
330
1F
100
AcDbEntity
  8
101
  6
Continuous
 62
     7
370
    30
100
AcDbLine
 10
52.35333568770287
 20
94.7366708983846
 30
0.0
 11
51.23971695482356
 21
93.74224414389266
 31
0.0
  0
LINE
  5
1EE
330
1F
100
AcDbEntity
  8
101
  6
Continuous
 62
     7
370
    30
100
AcDbLine
 10
51.23971695482356
 20
93.74224414389266
 30
0.0
 11
50.35903513664175
 21
92.3217895984381
 31
0.0
  0
LINE
  5
1EF
330
1F
100
AcDbEntity
  8
101
  6
Continuous
 62
     7
370
    30
100
AcDbLine
 10
50.35903513664175
 20
92.3217895984381
 30
0.0
 11
50.38744422755084
 21
90.7592895984381
 31
0.0
  0
LINE
  5
1F0
330
1F
100
AcDbEntity
  8
101
  6
Continuous
 62
     7
370
    30
100
AcDbLine
 10
50.38744422755084
 20
90.7592895984381
 30
0.0
 11
50.81358059118722
 21
89.48088050752904
 31
0.0
  0
LINE
  5
1F1
330
1F
100
AcDbEntity
  8
101
  6
Continuous
 62
     7
370
    30
100
AcDbLine
 10
50.81358059118722
 20
89.48088050752904
 30
0.0
 11
51.46698968209631
 21
88.37292596207448
 31
0.0
  0
LINE
  5
1F2
330
1F
100
AcDbEntity
  8
101
  6
Continuous
 62
     7
370
    30
100
AcDbLine
 10
51.46698968209631
 20
88.37292596207448
 30
0.0
 11
52.97267150027815
 21
86.61156232571088
 31
0.0
  0
LINE
  5
1F3
330
1F
100
AcDbEntity
  8
101
  6
Continuous
 62
     7
370
    30
100
AcDbLine
 10
52.97267150027815
 20
86.61156232571088
 30
0.0
 11
55.44426240936906
 21
84.90701687116541
 31
0.0
  0
LINE
  5
1F4
330
1F
100
AcDbEntity
  8
101
  6
Continuous
 62
     7
370
    30
100
AcDbLine
 10
55.44426240936906
 20
84.90701687116541
 30
0.0
 11
58.02948968209634
 21
83.77065323480178
 31
0.0
  0
LINE
  5
1F5
330
1F
100
AcDbEntity
  8
101
  6
Continuous
 62
     7
370
    30
100
AcDbLine
 10
58.02948968209634
 20
83.77065323480178
 30
0.0
 11
60.47267150027815
 21
82.83315323480178
 31
0.0
  0
LINE
  5
1F6
330
1F
100
AcDbEntity
  8
101
  6
Continuous
 62
     7
370
    30
100
AcDbLine
 10
60.47267150027815
 20
82.83315323480178
 30
0.0
 11
63.71130786391453
 21
81.8388350529836
 31
0.0
  0
LINE
  5
1F7
330
1F
100
AcDbEntity
  8
101
  6
Continuous
 62
     7
370
    30
100
AcDbLine
 10
63.71130786391453
 20
81.8388350529836
 30
0.0
 11
65.92721695482362
 21
81.27065323480178
 31
0.0
  0
LINE
  5
1F8
330
1F
100
AcDbEntity
  8
101
  6
Continuous
 62
     7
370
    30
100
AcDbLine
 10
65.92721695482362
 20
81.27065323480178
 30
0.0
 11
68.45562604573271
 21
80.67406232571085
 31
0.0
  0
LINE
  5
1F9
330
1F
100
AcDbEntity
  8
101
  6
Continuous
 62
     7
370
    30
100
AcDbLine
 10
52.35896346832675
 20
91.49794558359619
 30
0.0
 11
51.66585331845997
 21
90.5604259620745
 31
0.0
  0
LINE
  5
1FA
330
1F
100
AcDbEntity
  8
101
  6
Continuous
 62
     7
370
    30
100
AcDbLine
 10
51.66585331845997
 20
90.5604259620745
 30
0.0
 11
51.35335331845997
 21
89.6513350529836
 31
0.0
  0
LINE
  5
1FB
330
1F
100
AcDbEntity
  8
101
  6
Continuous
 62
     7
370
    30
100
AcDbLine
 10
51.35335331845997
 20
89.6513350529836
 30
0.0
 11
51.28339766435795
 21
88.68423416606561
 31
0.0
  0
LINE
  5
1FC
330
1F
100
AcDbEntity
  8
101
  6
Continuous
 62
     7
370
    30
100
AcDbLine
 10
66.93001568154565
 20
131.3231398539668
 30
0.0
 11
67.85903513664181
 21
98.42974414389272
 31
0.0
  0
LINE
  5
1FD
330
1F
100
AcDbEntity
  8
101
  6
Continuous
 62
     7
370
    30
100
AcDbLine
 10
67.85903513664181
 20
98.42974414389272
 30
0.0
 11
68.31358059118725
 21
78.88428959843816
 31
0.0
  0
LINE
  5
1FE
330
1F
100
AcDbEntity
  8
101
  6
Continuous
 62
     7
370
    30
100
AcDbLine
 10
68.31358059118725
 20
78.88428959843816
 30
0.0
 11
68.14312604573271
 21
78.25928959843816
 31
0.0
  0
LINE
  5
1FF
330
1F
100
AcDbEntity
  8
101
  6
Continuous
 62
     7
370
    30
100
AcDbLine
 10
68.14312604573271
 20
78.25928959843816
 30
0.0
 11
68.73971695482362
 21
77.77633505298363
 31
0.0
  0
LINE
  5
200
330
1F
100
AcDbEntity
  8
101
  6
Continuous
 62
     7
370
    30
100
AcDbLine
 10
68.73971695482362
 20
77.77633505298363
 30
0.0
 11
69.90448968209634
 21
77.49224414389272
 31
0.0
  0
LINE
  5
201
330
1F
100
AcDbEntity
  8
101
  6
Continuous
 62
     7
370
    30
100
AcDbLine
 10
69.90448968209634
 20
77.49224414389272
 30
0.0
 11
70.78517150027818
 21
77.49224414389272
 31
0.0
  0
LINE
  5
202
330
1F
100
AcDbEntity
  8
101
  6
Continuous
 62
     7
370
    30
100
AcDbLine
 10
70.78517150027818
 20
77.49224414389272
 30
0.0
 11
71.80789877300543
 21
77.69110778025635
 31
0.0
  0
LINE
  5
203
330
1F
100
AcDbEntity
  8
101
  6
Continuous
 62
     7
370
    30
100
AcDbLine
 10
71.80789877300543
 20
77.69110778025635
 30
0.0
 11
72.48971695482362
 21
77.88997141662
 31
0.0
  0
LINE
  5
204
330
1F
100
AcDbEntity
  8
101
  6
Continuous
 62
     7
370
    30
100
AcDbLine
 10
72.48971695482362
 20
77.88997141662
 30
0.0
 11
72.63176240936906
 21
78.34451687116547
 31
0.0
  0
LINE
  5
205
330
1F
100
AcDbEntity
  8
101
  6
Continuous
 62
     7
370
    30
100
AcDbLine
 10
72.63176240936906
 20
78.34451687116547
 30
0.0
 11
72.5749442275509
 21
78.77065323480181
 31
0.0
  0
LINE
  5
206
330
1F
100
AcDbEntity
  8
101
  6
Continuous
 62
     7
370
    30
100
AcDbLine
 10
72.5749442275509
 20
78.77065323480181
 30
0.0
 11
72.26244422755087
 21
91.89565323480184
 31
0.0
  0
LINE
  5
207
330
1F
100
AcDbEntity
  8
101
  6
Continuous
 62
     7
370
    30
100
AcDbLine
 10
72.26244422755087
 20
91.89565323480184
 30
0.0
 11
72.00676240936906
 21
102.3786077802564
 31
0.0
  0
LINE
  5
208
330
1F
100
AcDbEntity
  8
101
  6
Continuous
 62
     7
370
    30
100
AcDbLine
 10
72.00676240936906
 20
102.3786077802564
 30
0.0
 11
71.69426240936903
 21
116.6399714166201
 31
0.0
  0
LINE
  5
209
330
1F
100
AcDbEntity
  8
101
  6
Continuous
 62
     7
370
    30
100
AcDbLine
 10
71.69426240936903
 20
116.6399714166201
 30
0.0
 11
71.26812604573263
 21
130.9865623257108
 31
0.0
  0
LINE
  5
20A
330
1F
100
AcDbEntity
  8
101
  6
Continuous
 62
     7
370
    30
100
AcDbLine
 10
129.5919896820964
 20
134.0547441438927
 30
0.0
 11
128.4556260457327
 21
89.13997141662003
 31
0.0
  0
LINE
  5
20B
330
1F
100
AcDbEntity
  8
101
  6
Continuous
 62
     7
370
    30
100
AcDbLine
 10
128.4556260457327
 20
89.13997141662003
 30
0.0
 11
128.1431260457327
 21
87.35019868934734
 31
0.0
  0
LINE
  5
20C
330
1F
100
AcDbEntity
  8
101
  6
Continuous
 62
     7
370
    30
100
AcDbLine
 10
128.1431260457327
 20
87.35019868934734
 30
0.0
 11
128.3419896820963
 21
86.55474414389278
 31
0.0
  0
LINE
  5
20D
330
1F
100
AcDbEntity
  8
101
  6
Continuous
 62
     7
370
    30
100
AcDbLine
 10
128.3419896820963
 20
86.55474414389278
 30
0.0
 11
128.8817624093691
 21
86.21383505298368
 31
0.0
  0
LINE
  5
20E
330
1F
100
AcDbEntity
  8
101
  6
Continuous
 62
     7
370
    30
100
AcDbLine
 10
128.8817624093691
 20
86.21383505298368
 30
0.0
 11
129.7624442275509
 21
85.92974414389278
 31
0.0
  0
LINE
  5
20F
330
1F
100
AcDbEntity
  8
101
  6
Continuous
 62
     7
370
    30
100
AcDbLine
 10
129.7624442275509
 20
85.92974414389278
 30
0.0
 11
130.8988078639145
 21
86.07178959843822
 31
0.0
  0
LINE
  5
210
330
1F
100
AcDbEntity
  8
101
  6
Continuous
 62
     7
370
    30
100
AcDbLine
 10
130.8988078639145
 20
86.07178959843822
 30
0.0
 11
131.7510805911872
 21
86.21383505298368
 31
0.0
  0
LINE
  5
211
330
1F
100
AcDbEntity
  8
101
  6
Continuous
 62
     7
370
    30
100
AcDbLine
 10
131.7510805911872
 20
86.21383505298368
 30
0.0
 11
132.0635805911872
 21
86.38428959843822
 31
0.0
  0
LINE
  5
212
330
1F
100
AcDbEntity
  8
101
  6
Continuous
 62
     7
370
    30
100
AcDbLine
 10
132.0635805911872
 20
86.38428959843822
 30
0.0
 11
132.1772169548236
 21
88.51497141662003
 31
0.0
  0
LINE
  5
213
330
1F
100
AcDbEntity
  8
101
  6
Continuous
 62
     7
370
    30
100
AcDbLine
 10
132.1772169548236
 20
88.51497141662003
 30
0.0
 11
132.29085331846
 21
97.06610778025643
 31
0.0
  0
LINE
  5
214
330
1F
100
AcDbEntity
  8
101
  6
Continuous
 62
     7
370
    30
100
AcDbLine
 10
132.29085331846
 20
97.06610778025643
 30
0.0
 11
132.7453987730054
 21
106.4126986893474
 31
0.0
  0
LINE
  5
215
330
1F
100
AcDbEntity
  8
101
  6
Continuous
 62
     7
370
    30
100
AcDbLine
 10
132.7453987730054
 20
106.4126986893474
 30
0.0
 11
132.8874442275509
 21
116.8104259620746
 31
0.0
  0
LINE
  5
216
330
1F
100
AcDbEntity
  8
101
  6
Continuous
 62
     7
370
    30
100
AcDbLine
 10
132.8874442275509
 20
116.8104259620746
 30
0.0
 11
133.0863078639145
 21
126.7251986893473
 31
0.0
  0
LINE
  5
217
330
1F
100
AcDbEntity
  8
101
  6
Continuous
 62
     7
370
    30
100
AcDbLine
 10
133.0863078639145
 20
126.7251986893473
 30
0.0
 11
133.2427375070134
 21
135.1525214618747
 31
0.0
  0
LINE
  5
218
330
1F
100
AcDbEntity
  8
101
  6
Continuous
 62
     7
370
    30
100
AcDbLine
 10
126.6738448707033
 20
133.3430015069675
 30
0.0
 11
126.4101715002781
 21
92.4070168711655
 31
0.0
  0
LINE
  5
219
330
1F
100
AcDbEntity
  8
101
  6
Continuous
 62
     7
370
    30
100
AcDbLine
 10
126.4101715002781
 20
92.4070168711655
 30
0.0
 11
126.4669896820963
 21
88.08883505298368
 31
0.0
  0
LINE
  5
21A
330
1F
100
AcDbEntity
  8
101
  6
Continuous
 62
     7
370
    30
100
AcDbLine
 10
126.4121866222739
 20
92.71986986395709
 30
0.0
 11
127.0635805911872
 21
92.03769868934731
 31
0.0
  0
LINE
  5
21B
330
1F
100
AcDbEntity
  8
101
  6
Continuous
 62
     7
370
    30
100
AcDbLine
 10
127.0635805911872
 20
92.03769868934731
 30
0.0
 11
127.2624442275508
 21
91.07178959843822
 31
0.0
  0
LINE
  5
21C
330
1F
100
AcDbEntity
  8
101
  6
Continuous
 62
     7
370
    30
100
AcDbLine
 10
127.2624442275508
 20
91.07178959843822
 30
0.0
 11
127.2624442275508
 21
90.04906232571096
 31
0.0
  0
LINE
  5
21D
330
1F
100
AcDbEntity
  8
101
  6
Continuous
 62
     7
370
    30
100
AcDbLine
 10
127.2624442275508
 20
90.04906232571096
 30
0.0
 11
127.2056260457327
 21
89.31042596207459
 31
0.0
  0
LINE
  5
21E
330
1F
100
AcDbEntity
  8
101
  6
Continuous
 62
     7
370
    30
100
AcDbLine
 10
127.2056260457327
 20
89.31042596207459
 30
0.0
 11
126.4669896820963
 21
88.08883505298368
 31
0.0
  0
LINE
  5
21F
330
1F
100
AcDbEntity
  8
101
  6
Continuous
 62
     7
370
    30
100
AcDbLine
 10
126.4669896820963
 20
88.08883505298368
 30
0.0
 11
125.9840351366418
 21
87.32178959843822
 31
0.0
  0
LINE
  5
220
330
1F
100
AcDbEntity
  8
101
  6
Continuous
 62
     7
370
    30
100
AcDbLine
 10
125.9840351366418
 20
87.32178959843822
 30
0.0
 11
124.8476715002781
 21
86.15701687116552
 31
0.0
  0
LINE
  5
221
330
1F
100
AcDbEntity
  8
101
  6
Continuous
 62
     7
370
    30
100
AcDbLine
 10
124.8476715002781
 20
86.15701687116552
 30
0.0
 11
122.1203987730054
 21
84.33883505298365
 31
0.0
  0
LINE
  5
222
330
1F
100
AcDbEntity
  8
101
  6
Continuous
 62
     7
370
    30
100
AcDbLine
 10
122.1203987730054
 20
84.33883505298365
 30
0.0
 11
119.0238078639145
 21
83.06042596207453
 31
0.0
  0
LINE
  5
223
330
1F
100
AcDbEntity
  8
101
  6
Continuous
 62
     7
370
    30
100
AcDbLine
 10
119.0238078639145
 20
83.06042596207453
 30
0.0
 11
115.3022169548236
 21
81.95247141662003
 31
0.0
  0
LINE
  5
224
330
1F
100
AcDbEntity
  8
101
  6
Continuous
 62
     7
370
    30
100
AcDbLine
 10
115.3022169548236
 20
81.95247141662003
 30
0.0
 11
111.6942624093691
 21
80.92974414389272
 31
0.0
  0
LINE
  5
225
330
1F
100
AcDbEntity
  8
101
  6
Continuous
 62
     7
370
    30
100
AcDbLine
 10
111.6942624093691
 20
80.92974414389272
 30
0.0
 11
105.4442624093691
 21
79.62292596207456
 31
0.0
  0
LINE
  5
226
330
1F
100
AcDbEntity
  8
101
  6
Continuous
 62
     7
370
    30
100
AcDbLine
 10
105.4442624093691
 20
79.62292596207456
 30
0.0
 11
101.1828987730055
 21
79.1115623257109
 31
0.0
  0
LINE
  5
227
330
1F
100
AcDbEntity
  8
101
  6
Continuous
 62
     7
370
    30
100
AcDbLine
 10
101.1828987730055
 20
79.1115623257109
 30
0.0
 11
95.1885805911873
 21
78.7990623257109
 31
0.0
  0
LINE
  5
228
330
1F
100
AcDbEntity
  8
101
  6
Continuous
 62
     7
370
    30
100
AcDbLine
 10
95.1885805911873
 20
78.7990623257109
 30
0.0
 11
90.38744422755093
 21
78.62860778025637
 31
0.0
  0
LINE
  5
229
330
1F
100
AcDbEntity
  8
101
  6
Continuous
 62
     7
370
    30
100
AcDbLine
 10
90.38744422755093
 20
78.62860778025637
 30
0.0
 11
85.24539877300549
 21
78.74224414389272
 31
0.0
  0
LINE
  5
22A
330
1F
100
AcDbEntity
  8
101
  6
Continuous
 62
     7
370
    30
100
AcDbLine
 10
85.24539877300549
 20
78.74224414389272
 30
0.0
 11
80.2169896820964
 21
78.99792596207456
 31
0.0
  0
LINE
  5
22B
330
1F
100
AcDbEntity
  8
101
  6
Continuous
 62
     7
370
    30
100
AcDbLine
 10
80.2169896820964
 20
78.99792596207456
 30
0.0
 11
76.35335331846002
 21
79.39565323480184
 31
0.0
  0
LINE
  5
22C
330
1F
100
AcDbEntity
  8
101
  6
Continuous
 62
     7
370
    30
100
AcDbLine
 10
76.35335331846002
 20
79.39565323480184
 30
0.0
 11
72.54252728189033
 21
80.13216495254585
 31
0.0
  0
LINE
  5
22D
330
1F
100
AcDbEntity
  8
101
  6
Continuous
 62
     7
370
    30
100
AcDbLine
 10
126.4554604766795
 20
99.43824963899357
 30
0.0
 11
128.6885015347193
 21
98.34437511881345
 31
0.0
  0
LINE
  5
22E
330
1F
100
AcDbEntity
  8
101
  6
Continuous
 62
     7
370
    30
100
AcDbLine
 10
132.2827378685193
 20
96.45542017222175
 30
0.0
 11
134.1090351366418
 21
95.60303959843822
 31
0.0
  0
LINE
  5
22F
330
1F
100
AcDbEntity
  8
101
  6
Continuous
 62
     7
370
    30
100
AcDbLine
 10
134.1090351366418
 20
95.60303959843822
 30
0.0
 11
135.6005124093691
 21
94.36724414389275
 31
0.0
  0
LINE
  5
230
330
1F
100
AcDbEntity
  8
101
  6
Continuous
 62
     7
370
    30
100
AcDbLine
 10
135.6005124093691
 20
94.36724414389275
 30
0.0
 11
136.7936942275509
 21
93.21667596207453
 31
0.0
  0
LINE
  5
231
330
1F
100
AcDbEntity
  8
101
  6
Continuous
 62
     7
370
    30
100
AcDbLine
 10
136.7936942275509
 20
93.21667596207453
 30
0.0
 11
137.7738078639145
 21
92.09451687116547
 31
0.0
  0
LINE
  5
232
330
1F
100
AcDbEntity
  8
101
  6
Continuous
 62
     7
370
    30
100
AcDbLine
 10
137.7738078639145
 20
92.09451687116547
 30
0.0
 11
138.5124442275509
 21
90.97235778025637
 31
0.0
  0
LINE
  5
233
330
1F
100
AcDbEntity
  8
101
  6
Continuous
 62
     7
370
    30
100
AcDbLine
 10
138.5124442275509
 20
90.97235778025637
 30
0.0
 11
138.8817624093691
 21
89.90701687116547
 31
0.0
  0
LINE
  5
234
330
1F
100
AcDbEntity
  8
101
  6
Continuous
 62
     7
370
    30
100
AcDbLine
 10
138.8817624093691
 20
89.90701687116547
 30
0.0
 11
139.1516487730055
 21
88.8558805075291
 31
0.0
  0
LINE
  5
235
330
1F
100
AcDbEntity
  8
101
  6
Continuous
 62
     7
370
    30
100
AcDbLine
 10
139.1516487730055
 20
88.8558805075291
 30
0.0
 11
139.1516487730055
 21
87.74792596207456
 31
0.0
  0
LINE
  5
236
330
1F
100
AcDbEntity
  8
101
  6
Continuous
 62
     7
370
    30
100
AcDbLine
 10
139.1516487730055
 20
87.74792596207456
 30
0.0
 11
138.7397169548238
 21
74.12576687116547
 31
0.0
  0
LINE
  5
237
330
1F
100
AcDbEntity
  8
101
  6
Continuous
 62
     7
370
    30
100
AcDbLine
 10
138.7397169548238
 20
74.12576687116547
 30
0.0
 11
137.8306260457329
 21
72.16553959843822
 31
0.0
  0
LINE
  5
238
330
1F
100
AcDbEntity
  8
101
  6
Continuous
 62
     7
370
    30
100
AcDbLine
 10
137.8306260457329
 20
72.16553959843822
 30
0.0
 11
136.0976715002784
 21
70.20531232571093
 31
0.0
  0
LINE
  5
239
330
1F
100
AcDbEntity
  8
101
  6
Continuous
 62
     7
370
    30
100
AcDbLine
 10
136.0976715002784
 20
70.20531232571093
 30
0.0
 11
133.7681260457329
 21
68.10303959843822
 31
0.0
  0
LINE
  5
23A
330
1F
100
AcDbEntity
  8
101
  6
Continuous
 62
     7
370
    30
100
AcDbLine
 10
133.7681260457329
 20
68.10303959843822
 30
0.0
 11
131.4669896820965
 21
66.6257668711655
 31
0.0
  0
LINE
  5
23B
330
1F
100
AcDbEntity
  8
101
  6
Continuous
 62
     7
370
    30
100
AcDbLine
 10
131.4669896820965
 20
66.6257668711655
 30
0.0
 11
128.7113078639147
 21
65.00644868934734
 31
0.0
  0
LINE
  5
23C
330
1F
100
AcDbEntity
  8
101
  6
Continuous
 62
     7
370
    30
100
AcDbLine
 10
128.7113078639147
 20
65.00644868934734
 30
0.0
 11
124.6203987730057
 21
63.35872141662006
 31
0.0
  0
LINE
  5
23D
330
1F
100
AcDbEntity
  8
101
  6
Continuous
 62
     7
370
    30
100
AcDbLine
 10
124.6203987730057
 20
63.35872141662006
 30
0.0
 11
120.2169896820966
 21
61.79622141662006
 31
0.0
  0
LINE
  5
23E
330
1F
100
AcDbEntity
  8
101
  6
Continuous
 62
     7
370
    30
100
AcDbLine
 10
120.2169896820966
 20
61.79622141662006
 30
0.0
 11
117.3192624093693
 21
61.00076687116552
 31
0.0
  0
LINE
  5
23F
330
1F
100
AcDbEntity
  8
101
  6
Continuous
 62
     7
370
    30
100
AcDbLine
 10
117.3192624093693
 20
61.00076687116552
 30
0.0
 11
113.0294896820966
 21
60.09167596207459
 31
0.0
  0
LINE
  5
240
330
1F
100
AcDbEntity
  8
101
  6
Continuous
 62
     7
370
    30
100
AcDbLine
 10
113.0294896820966
 20
60.09167596207459
 30
0.0
 11
109.3078987730057
 21
59.49508505298368
 31
0.0
  0
LINE
  5
241
330
1F
100
AcDbEntity
  8
101
  6
Continuous
 62
     7
370
    30
100
AcDbLine
 10
109.3078987730057
 20
59.49508505298368
 30
0.0
 11
105.6999442275511
 21
58.87008505298368
 31
0.0
  0
LINE
  5
242
330
1F
100
AcDbEntity
  8
101
  6
Continuous
 62
     7
370
    30
100
AcDbLine
 10
105.6999442275511
 20
58.87008505298368
 30
0.0
 11
101.893126045733
 21
58.41553959843822
 31
0.0
  0
LINE
  5
243
330
1F
100
AcDbEntity
  8
101
  6
Continuous
 62
     7
370
    30
100
AcDbLine
 10
101.893126045733
 20
58.41553959843822
 30
0.0
 11
96.69426240936934
 21
58.01781232571093
 31
0.0
  0
LINE
  5
244
330
1F
100
AcDbEntity
  8
101
  6
Continuous
 62
     7
370
    30
100
AcDbLine
 10
96.69426240936934
 20
58.01781232571093
 30
0.0
 11
91.94994422755116
 21
57.87576687116547
 31
0.0
  0
LINE
  5
245
330
1F
100
AcDbEntity
  8
101
  6
Continuous
 62
     7
370
    30
100
AcDbLine
 10
91.94994422755116
 20
57.87576687116547
 30
0.0
 11
85.50108059118753
 21
57.90417596207459
 31
0.0
  0
LINE
  5
246
330
1F
100
AcDbEntity
  8
101
  6
Continuous
 62
     7
370
    30
100
AcDbLine
 10
85.50108059118753
 20
57.90417596207459
 30
0.0
 11
77.71698968209662
 21
58.35872141662003
 31
0.0
  0
LINE
  5
247
330
1F
100
AcDbEntity
  8
101
  6
Continuous
 62
     7
370
    30
100
AcDbLine
 10
77.71698968209662
 20
58.35872141662003
 30
0.0
 11
70.643126045733
 21
59.18258505298365
 31
0.0
  0
LINE
  5
248
330
1F
100
AcDbEntity
  8
101
  6
Continuous
 62
     7
370
    30
100
AcDbLine
 10
70.643126045733
 20
59.18258505298365
 30
0.0
 11
64.96130786391484
 21
60.12008505298365
 31
0.0
  0
LINE
  5
249
330
1F
100
AcDbEntity
  8
101
  6
Continuous
 62
     7
370
    30
100
AcDbLine
 10
64.96130786391484
 20
60.12008505298365
 30
0.0
 11
57.66017150027847
 21
62.02349414389275
 31
0.0
  0
LINE
  5
24A
330
1F
100
AcDbEntity
  8
101
  6
Continuous
 62
     7
370
    30
100
AcDbLine
 10
57.66017150027847
 20
62.02349414389275
 30
0.0
 11
52.00676240936937
 21
63.84167596207456
 31
0.0
  0
LINE
  5
24B
330
1F
100
AcDbEntity
  8
101
  6
Continuous
 62
     7
370
    30
100
AcDbLine
 10
52.00676240936937
 20
63.84167596207456
 30
0.0
 11
48.45562604573303
 21
65.51781232571093
 31
0.0
  0
LINE
  5
24C
330
1F
100
AcDbEntity
  8
101
  6
Continuous
 62
     7
370
    30
100
AcDbLine
 10
48.45562604573303
 20
65.51781232571093
 30
0.0
 11
45.58630786391484
 21
67.33599414389278
 31
0.0
  0
LINE
  5
24D
330
1F
100
AcDbEntity
  8
101
  6
Continuous
 62
     7
370
    30
100
AcDbLine
 10
45.58630786391484
 20
67.33599414389278
 30
0.0
 11
42.74539877300575
 21
69.49508505298365
 31
0.0
  0
LINE
  5
24E
330
1F
100
AcDbEntity
  8
101
  6
Continuous
 62
     7
370
    30
100
AcDbLine
 10
42.74539877300575
 20
69.49508505298365
 30
0.0
 11
40.87039877300575
 21
71.42690323480184
 31
0.0
  0
LINE
  5
24F
330
1F
100
AcDbEntity
  8
101
  6
Continuous
 62
     7
370
    30
100
AcDbLine
 10
40.87039877300575
 20
71.42690323480184
 30
0.0
 11
39.90448968209665
 21
73.04622141662003
 31
0.0
  0
LINE
  5
250
330
1F
100
AcDbEntity
  8
101
  6
Continuous
 62
     7
370
    30
100
AcDbLine
 10
39.90448968209665
 20
73.04622141662003
 30
0.0
 11
39.10903513664212
 21
74.83599414389275
 31
0.0
  0
LINE
  5
251
330
1F
100
AcDbEntity
  8
101
  6
Continuous
 62
     7
370
    30
100
AcDbLine
 10
39.10903513664212
 20
74.83599414389275
 30
0.0
 11
38.79653513664212
 21
87.5348577802564
 31
0.0
  0
LINE
  5
252
330
1F
100
AcDbEntity
  8
101
  6
Continuous
 62
     7
370
    30
100
AcDbLine
 10
38.79653513664212
 20
87.5348577802564
 30
0.0
 11
38.96698968209668
 21
90.51781232571096
 31
0.0
  0
LINE
  5
253
330
1F
100
AcDbEntity
  8
101
  6
Continuous
 62
     7
370
    30
100
AcDbLine
 10
38.96698968209668
 20
90.51781232571096
 30
0.0
 11
40.07494422755121
 21
92.73372141662006
 31
0.0
  0
LINE
  5
254
330
1F
100
AcDbEntity
  8
101
  6
Continuous
 62
     7
370
    30
100
AcDbLine
 10
40.07494422755121
 20
92.73372141662006
 30
0.0
 11
41.63744422755121
 21
94.43826687116552
 31
0.0
  0
LINE
  5
255
330
1F
100
AcDbEntity
  8
101
  6
Continuous
 62
     7
370
    30
100
AcDbLine
 10
41.63744422755121
 20
94.43826687116552
 30
0.0
 11
43.37039877300577
 21
95.77349414389278
 31
0.0
  0
LINE
  5
256
330
1F
100
AcDbEntity
  8
101
  6
Continuous
 62
     7
370
    30
100
AcDbLine
 10
43.37039877300577
 20
95.77349414389278
 30
0.0
 11
45.64312604573303
 21
97.2223577802564
 31
0.0
  0
LINE
  5
257
330
1F
100
AcDbEntity
  8
101
  6
Continuous
 62
     7
370
    30
100
AcDbLine
 10
45.64312604573303
 20
97.2223577802564
 30
0.0
 11
48.79653513664212
 21
98.69963050752915
 31
0.0
  0
LINE
  5
258
330
1F
100
AcDbEntity
  8
101
  6
Continuous
 62
     7
370
    30
100
AcDbLine
 10
48.79653513664212
 20
98.69963050752915
 30
0.0
 11
50.01851683629079
 21
99.18404090402868
 31
0.0
  0
LINE
  5
259
330
1F
100
AcDbEntity
  8
101
  6
Continuous
 62
     7
370
    30
100
AcDbLine
 10
38.8328728835169
 20
88.17076835056488
 30
0.0
 11
39.44994422755124
 21
86.22803959843827
 31
0.0
  0
LINE
  5
25A
330
1F
100
AcDbEntity
  8
101
  6
Continuous
 62
     7
370
    30
100
AcDbLine
 10
39.44994422755124
 20
86.22803959843827
 30
0.0
 11
40.81358059118759
 21
84.49508505298371
 31
0.0
  0
LINE
  5
25B
330
1F
100
AcDbEntity
  8
101
  6
Continuous
 62
     7
370
    30
100
AcDbLine
 10
40.81358059118759
 20
84.49508505298371
 30
0.0
 11
43.17153513664215
 21
82.56326687116552
 31
0.0
  0
LINE
  5
25C
330
1F
100
AcDbEntity
  8
101
  6
Continuous
 62
     7
370
    30
100
AcDbLine
 10
43.17153513664215
 20
82.56326687116552
 30
0.0
 11
46.43858059118759
 21
80.63144868934734
 31
0.0
  0
LINE
  5
25D
330
1F
100
AcDbEntity
  8
101
  6
Continuous
 62
     7
370
    30
100
AcDbLine
 10
46.43858059118759
 20
80.63144868934734
 30
0.0
 11
51.01244422755121
 21
78.47235778025643
 31
0.0
  0
LINE
  5
25E
330
1F
100
AcDbEntity
  8
101
  6
Continuous
 62
     7
370
    30
100
AcDbLine
 10
51.01244422755121
 20
78.47235778025643
 30
0.0
 11
55.92721695482393
 21
76.85303959843827
 31
0.0
  0
LINE
  5
25F
330
1F
100
AcDbEntity
  8
101
  6
Continuous
 62
     7
370
    30
100
AcDbLine
 10
55.92721695482393
 20
76.85303959843827
 30
0.0
 11
61.01244422755121
 21
75.60303959843824
 31
0.0
  0
LINE
  5
260
330
1F
100
AcDbEntity
  8
101
  6
Continuous
 62
     7
370
    30
100
AcDbLine
 10
61.01244422755121
 20
75.60303959843824
 30
0.0
 11
66.77948968209665
 21
74.60872141662009
 31
0.0
  0
LINE
  5
261
330
1F
100
AcDbEntity
  8
101
  6
Continuous
 62
     7
370
    30
100
AcDbLine
 10
66.77948968209665
 20
74.60872141662009
 30
0.0
 11
73.05789877300575
 21
73.72803959843824
 31
0.0
  0
LINE
  5
262
330
1F
100
AcDbEntity
  8
101
  6
Continuous
 62
     7
370
    30
100
AcDbLine
 10
73.05789877300575
 20
73.72803959843824
 30
0.0
 11
79.47835331846028
 21
73.21667596207462
 31
0.0
  0
LINE
  5
263
330
1F
100
AcDbEntity
  8
101
  6
Continuous
 62
     7
370
    30
100
AcDbLine
 10
79.47835331846028
 20
73.21667596207462
 30
0.0
 11
85.01812604573303
 21
72.93258505298371
 31
0.0
  0
LINE
  5
264
330
1F
100
AcDbEntity
  8
101
  6
Continuous
 62
     7
370
    30
100
AcDbLine
 10
85.01812604573303
 20
72.93258505298371
 30
0.0
 11
91.2397169548239
 21
72.84735778025643
 31
0.0
  0
LINE
  5
265
330
1F
100
AcDbEntity
  8
101
  6
Continuous
 62
     7
370
    30
100
AcDbLine
 10
91.2397169548239
 20
72.84735778025643
 30
0.0
 11
96.580626045733
 21
72.90417596207462
 31
0.0
  0
LINE
  5
266
330
1F
100
AcDbEntity
  8
101
  6
Continuous
 62
     7
370
    30
100
AcDbLine
 10
96.580626045733
 20
72.90417596207462
 30
0.0
 11
102.9726715002784
 21
73.15985778025643
 31
0.0
  0
LINE
  5
267
330
1F
100
AcDbEntity
  8
101
  6
Continuous
 62
     7
370
    30
100
AcDbLine
 10
102.9726715002784
 20
73.15985778025643
 30
0.0
 11
108.3419896820966
 21
73.81326687116552
 31
0.0
  0
LINE
  5
268
330
1F
100
AcDbEntity
  8
101
  6
Continuous
 62
     7
370
    30
100
AcDbLine
 10
108.3419896820966
 20
73.81326687116552
 30
0.0
 11
112.9442624093693
 21
74.58031232571096
 31
0.0
  0
LINE
  5
269
330
1F
100
AcDbEntity
  8
101
  6
Continuous
 62
     7
370
    30
100
AcDbLine
 10
112.9442624093693
 20
74.58031232571096
 30
0.0
 11
119.2794896820966
 21
75.68826687116555
 31
0.0
  0
LINE
  5
26A
330
1F
100
AcDbEntity
  8
101
  6
Continuous
 62
     7
370
    30
100
AcDbLine
 10
119.2794896820966
 20
75.68826687116555
 30
0.0
 11
123.9953987730057
 21
77.13713050752918
 31
0.0
  0
LINE
  5
26B
330
1F
100
AcDbEntity
  8
101
  6
Continuous
 62
     7
370
    30
100
AcDbLine
 10
123.9953987730057
 20
77.13713050752918
 30
0.0
 11
127.8874442275511
 21
78.64281232571099
 31
0.0
  0
LINE
  5
26C
330
1F
100
AcDbEntity
  8
101
  6
Continuous
 62
     7
370
    30
100
AcDbLine
 10
127.8874442275511
 20
78.64281232571099
 30
0.0
 11
131.7794896820966
 21
80.4609941438928
 31
0.0
  0
LINE
  5
26D
330
1F
100
AcDbEntity
  8
101
  6
Continuous
 62
     7
370
    30
100
AcDbLine
 10
131.7794896820966
 20
80.4609941438928
 30
0.0
 11
134.7056260457329
 21
82.13713050752915
 31
0.0
  0
LINE
  5
26E
330
1F
100
AcDbEntity
  8
101
  6
Continuous
 62
     7
370
    30
100
AcDbLine
 10
134.7056260457329
 20
82.13713050752915
 30
0.0
 11
136.4385805911875
 21
83.5859941438928
 31
0.0
  0
LINE
  5
26F
330
1F
100
AcDbEntity
  8
101
  6
Continuous
 62
     7
370
    30
100
AcDbLine
 10
136.4385805911875
 20
83.5859941438928
 30
0.0
 11
137.546535136642
 21
85.00644868934734
 31
0.0
  0
LINE
  5
270
330
1F
100
AcDbEntity
  8
101
  6
Continuous
 62
     7
370
    30
100
AcDbLine
 10
137.546535136642
 20
85.00644868934734
 30
0.0
 11
138.3419896820965
 21
86.48372141662009
 31
0.0
  0
LINE
  5
271
330
1F
100
AcDbEntity
  8
101
  6
Continuous
 62
     7
370
    30
100
AcDbLine
 10
138.3419896820965
 20
86.48372141662009
 30
0.0
 11
138.8817624093693
 21
87.56326687116552
 31
0.0
  0
LINE
  5
272
330
1F
100
AcDbEntity
  8
101
  6
Continuous
 62
     7
370
    30
100
AcDbLine
 10
138.8817624093693
 20
87.56326687116552
 30
0.0
 11
139.1516487730055
 21
88.8558805075291
 31
0.0
  0
LINE
  5
273
330
1F
100
AcDbEntity
  8
101
  6
Continuous
 62
     7
370
    30
100
AcDbLine
 10
45.18858059118793
 20
88.1456532348019
 30
0.0
 11
45.8135805911879
 21
86.38428959843827
 31
0.0
  0
LINE
  5
274
330
1F
100
AcDbEntity
  8
101
  6
Continuous
 62
     7
370
    30
100
AcDbLine
 10
45.8135805911879
 20
86.38428959843827
 30
0.0
 11
47.17721695482427
 21
85.0206532348019
 31
0.0
  0
LINE
  5
275
330
1F
100
AcDbEntity
  8
101
  6
Continuous
 62
     7
370
    30
100
AcDbLine
 10
47.17721695482427
 20
85.0206532348019
 30
0.0
 11
48.9385805911879
 21
83.60019868934737
 31
0.0
  0
LINE
  5
276
330
1F
100
AcDbEntity
  8
101
  6
Continuous
 62
     7
370
    30
100
AcDbLine
 10
48.9385805911879
 20
83.60019868934737
 30
0.0
 11
53.02948968209697
 21
81.89565323480193
 31
0.0
  0
LINE
  5
277
330
1F
100
AcDbEntity
  8
101
  6
Continuous
 62
     7
370
    30
100
AcDbLine
 10
53.02948968209697
 20
81.89565323480193
 30
0.0
 11
57.5749442275515
 21
80.19110778025649
 31
0.0
  0
LINE
  5
278
330
1F
100
AcDbEntity
  8
101
  6
Continuous
 62
     7
370
    30
100
AcDbLine
 10
57.5749442275515
 20
80.19110778025649
 30
0.0
 11
62.00676240936966
 21
79.1683805075292
 31
0.0
  0
LINE
  5
279
330
1F
100
AcDbEntity
  8
101
  6
Continuous
 62
     7
370
    30
100
AcDbLine
 10
62.00676240936966
 20
79.1683805075292
 30
0.0
 11
66.89312604573325
 21
77.88997141662014
 31
0.0
  0
LINE
  5
27A
330
1F
100
AcDbEntity
  8
101
  6
Continuous
 62
     7
370
    30
100
AcDbLine
 10
66.89312604573325
 20
77.88997141662014
 30
0.0
 11
70.7283533184605
 21
77.20815323480196
 31
0.0
  0
LINE
  5
27B
330
1F
100
AcDbEntity
  8
101
  6
Continuous
 62
     7
370
    30
100
AcDbLine
 10
70.7283533184605
 20
77.20815323480196
 30
0.0
 11
77.37608059118776
 21
76.4979259620747
 31
0.0
  0
LINE
  5
27C
330
1F
100
AcDbEntity
  8
101
  6
Continuous
 62
     7
370
    30
100
AcDbLine
 10
77.37608059118776
 20
76.4979259620747
 30
0.0
 11
85.67153513664226
 21
76.04338050752926
 31
0.0
  0
LINE
  5
27D
330
1F
100
AcDbEntity
  8
101
  6
Continuous
 62
     7
370
    30
100
AcDbLine
 10
85.67153513664226
 20
76.04338050752926
 30
0.0
 11
91.86471695482408
 21
75.98656232571108
 31
0.0
  0
LINE
  5
27E
330
1F
100
AcDbEntity
  8
101
  6
Continuous
 62
     7
370
    30
100
AcDbLine
 10
91.86471695482408
 20
75.98656232571108
 30
0.0
 11
97.31926240936949
 21
76.15701687116561
 31
0.0
  0
LINE
  5
27F
330
1F
100
AcDbEntity
  8
101
  6
Continuous
 62
     7
370
    30
100
AcDbLine
 10
97.31926240936949
 20
76.15701687116561
 30
0.0
 11
103.4556260457331
 21
76.66838050752926
 31
0.0
  0
LINE
  5
280
330
1F
100
AcDbEntity
  8
101
  6
Continuous
 62
     7
370
    30
100
AcDbLine
 10
103.4556260457331
 20
76.66838050752926
 30
0.0
 11
109.7624442275512
 21
77.40701687116561
 31
0.0
  0
LINE
  5
281
330
1F
100
AcDbEntity
  8
101
  6
Continuous
 62
     7
370
    30
100
AcDbLine
 10
109.7624442275512
 20
77.40701687116561
 30
0.0
 11
116.0124442275512
 21
78.60019868934742
 31
0.0
  0
LINE
  5
282
330
1F
100
AcDbEntity
  8
101
  6
Continuous
 62
     7
370
    30
100
AcDbLine
 10
116.0124442275512
 20
78.60019868934742
 30
0.0
 11
121.864716954824
 21
79.96383505298377
 31
0.0
  0
LINE
  5
283
330
1F
100
AcDbEntity
  8
101
  6
Continuous
 62
     7
370
    30
100
AcDbLine
 10
121.864716954824
 20
79.96383505298377
 30
0.0
 11
128.2283533184603
 21
82.86156232571102
 31
0.0
  0
LINE
  5
284
330
1F
100
AcDbEntity
  8
101
  6
Continuous
 62
     7
370
    30
100
AcDbLine
 10
128.2283533184603
 20
82.86156232571102
 30
0.0
 11
131.2397169548239
 21
84.5092895984383
 31
0.0
  0
LINE
  5
285
330
1F
100
AcDbEntity
  8
101
  6
Continuous
 62
     7
370
    30
100
AcDbLine
 10
131.2397169548239
 20
84.5092895984383
 30
0.0
 11
132.0919896820966
 21
85.19110778025646
 31
0.0
  0
LINE
  5
286
330
1F
100
AcDbEntity
  8
101
  6
Continuous
 62
     7
370
    30
100
AcDbLine
 10
39.10903513664212
 20
74.83599414389275
 30
0.0
 11
39.50676240936977
 21
71.66838050752926
 31
0.0
  0
LINE
  5
287
330
1F
100
AcDbEntity
  8
101
  6
Continuous
 62
     7
370
    30
100
AcDbLine
 10
39.50676240936977
 20
71.66838050752926
 30
0.0
 11
39.96130786391524
 21
69.99224414389289
 31
0.0
  0
LINE
  5
288
330
1F
100
AcDbEntity
  8
101
  6
Continuous
 62
     7
370
    30
100
AcDbLine
 10
39.96130786391524
 20
69.99224414389289
 30
0.0
 11
41.12608059118796
 21
68.23088050752926
 31
0.0
  0
LINE
  5
289
330
1F
100
AcDbEntity
  8
101
  6
Continuous
 62
     7
370
    30
100
AcDbLine
 10
41.12608059118796
 20
68.23088050752926
 30
0.0
 11
42.85903513664249
 21
66.04338050752926
 31
0.0
  0
LINE
  5
28A
330
1F
100
AcDbEntity
  8
101
  6
Continuous
 62
     7
370
    30
100
AcDbLine
 10
42.85903513664249
 20
66.04338050752926
 30
0.0
 11
46.23971695482427
 21
63.5149714166202
 31
0.0
  0
LINE
  5
28B
330
1F
100
AcDbEntity
  8
101
  6
Continuous
 62
     7
370
    30
100
AcDbLine
 10
46.23971695482427
 20
63.5149714166202
 30
0.0
 11
49.30789877300609
 21
61.9524714166202
 31
0.0
  0
LINE
  5
28C
330
1F
100
AcDbEntity
  8
101
  6
Continuous
 62
     7
370
    30
100
AcDbLine
 10
49.30789877300609
 20
61.9524714166202
 30
0.0
 11
53.5124442275515
 21
60.27633505298385
 31
0.0
  0
LINE
  5
28D
330
1F
100
AcDbEntity
  8
101
  6
Continuous
 62
     7
370
    30
100
AcDbLine
 10
53.5124442275515
 20
60.27633505298385
 30
0.0
 11
58.08630786391512
 21
58.8274714166202
 31
0.0
  0
LINE
  5
28E
330
1F
100
AcDbEntity
  8
101
  6
Continuous
 62
     7
370
    30
100
AcDbLine
 10
58.08630786391512
 20
58.8274714166202
 30
0.0
 11
63.31358059118782
 21
57.46383505298385
 31
0.0
  0
LINE
  5
28F
330
1F
100
AcDbEntity
  8
101
  6
Continuous
 62
     7
370
    30
100
AcDbLine
 10
63.31358059118782
 20
57.46383505298385
 30
0.0
 11
68.73971695482419
 21
56.3274714166202
 31
0.0
  0
LINE
  5
290
330
1F
100
AcDbEntity
  8
101
  6
Continuous
 62
     7
370
    30
100
AcDbLine
 10
68.73971695482419
 20
56.3274714166202
 30
0.0
 11
74.10903513664232
 21
55.50360778025657
 31
0.0
  0
LINE
  5
291
330
1F
100
AcDbEntity
  8
101
  6
Continuous
 62
     7
370
    30
100
AcDbLine
 10
74.10903513664232
 20
55.50360778025657
 30
0.0
 11
82.14880786391504
 21
54.93542596207476
 31
0.0
  0
LINE
  5
292
330
1F
100
AcDbEntity
  8
101
  6
Continuous
 62
     7
370
    30
100
AcDbLine
 10
82.14880786391504
 20
54.93542596207476
 30
0.0
 11
87.8022169548241
 21
54.96383505298385
 31
0.0
  0
LINE
  5
293
330
1F
100
AcDbEntity
  8
101
  6
Continuous
 62
     7
370
    30
100
AcDbLine
 10
87.8022169548241
 20
54.96383505298385
 30
0.0
 11
93.71130786391498
 21
54.82178959843841
 31
0.0
  0
LINE
  5
294
330
1F
100
AcDbEntity
  8
101
  6
Continuous
 62
     7
370
    30
100
AcDbLine
 10
93.71130786391498
 20
54.82178959843841
 30
0.0
 11
100.0181260457331
 21
54.99224414389295
 31
0.0
  0
LINE
  5
295
330
1F
100
AcDbEntity
  8
101
  6
Continuous
 62
     7
370
    30
100
AcDbLine
 10
100.0181260457331
 20
54.99224414389295
 30
0.0
 11
105.6715351366422
 21
55.61724414389295
 31
0.0
  0
LINE
  5
296
330
1F
100
AcDbEntity
  8
101
  6
Continuous
 62
     7
370
    30
100
AcDbLine
 10
105.6715351366422
 20
55.61724414389295
 30
0.0
 11
111.0124442275512
 21
56.55474414389295
 31
0.0
  0
LINE
  5
297
330
1F
100
AcDbEntity
  8
101
  6
Continuous
 62
     7
370
    30
100
AcDbLine
 10
111.0124442275512
 20
56.55474414389295
 30
0.0
 11
116.0976715002785
 21
57.60588050752929
 31
0.0
  0
LINE
  5
298
330
1F
100
AcDbEntity
  8
101
  6
Continuous
 62
     7
370
    30
100
AcDbLine
 10
116.0976715002785
 20
57.60588050752929
 30
0.0
 11
121.552216954824
 21
59.02633505298382
 31
0.0
  0
LINE
  5
299
330
1F
100
AcDbEntity
  8
101
  6
Continuous
 62
     7
370
    30
100
AcDbLine
 10
121.552216954824
 20
59.02633505298382
 30
0.0
 11
125.614716954824
 21
60.56042596207473
 31
0.0
  0
LINE
  5
29A
330
1F
100
AcDbEntity
  8
101
  6
Continuous
 62
     7
370
    30
100
AcDbLine
 10
125.614716954824
 20
60.56042596207473
 30
0.0
 11
129.1658533184603
 21
62.40701687116564
 31
0.0
  0
LINE
  5
29B
330
1F
100
AcDbEntity
  8
101
  6
Continuous
 62
     7
370
    30
100
AcDbLine
 10
129.1658533184603
 20
62.40701687116564
 30
0.0
 11
133.3135805911875
 21
65.38997141662011
 31
0.0
  0
LINE
  5
29C
330
1F
100
AcDbEntity
  8
101
  6
Continuous
 62
     7
370
    30
100
AcDbLine
 10
133.3135805911875
 20
65.38997141662011
 30
0.0
 11
136.1544896820966
 21
67.97519868934737
 31
0.0
  0
LINE
  5
29D
330
1F
100
AcDbEntity
  8
101
  6
Continuous
 62
     7
370
    30
100
AcDbLine
 10
136.1544896820966
 20
67.97519868934737
 30
0.0
 11
137.6601715002784
 21
69.56610778025646
 31
0.0
  0
LINE
  5
29E
330
1F
100
AcDbEntity
  8
101
  6
Continuous
 62
     7
370
    30
100
AcDbLine
 10
137.6601715002784
 20
69.56610778025646
 30
0.0
 11
138.3419896820966
 21
70.67406232571102
 31
0.0
  0
LINE
  5
29F
330
1F
100
AcDbEntity
  8
101
  6
Continuous
 62
     7
370
    30
100
AcDbLine
 10
138.3419896820966
 20
70.67406232571102
 30
0.0
 11
138.7397169548238
 21
74.12576687116547
 31
0.0
  0
LINE
  5
2A0
330
1F
100
AcDbEntity
  8
101
  6
Continuous
 62
     7
370
    30
100
AcDbLine
 10
139.0290284844134
 20
83.69299986690547
 30
0.0
 11
142.7453987730057
 21
81.52633505298368
 31
0.0
  0
LINE
  5
2A1
330
1F
100
AcDbEntity
  8
101
  6
Continuous
 62
     7
370
    30
100
AcDbLine
 10
142.7453987730057
 20
81.52633505298368
 30
0.0
 11
145.8135805911875
 21
79.02633505298371
 31
0.0
  0
LINE
  5
2A2
330
1F
100
AcDbEntity
  8
101
  6
Continuous
 62
     7
370
    30
100
AcDbLine
 10
145.8135805911875
 20
79.02633505298371
 30
0.0
 11
148.0294896820966
 21
76.35588050752915
 31
0.0
  0
LINE
  5
2A3
330
1F
100
AcDbEntity
  8
101
  6
Continuous
 62
     7
370
    30
100
AcDbLine
 10
148.0294896820966
 20
76.35588050752915
 30
0.0
 11
149.6203987730057
 21
73.4581532348019
 31
0.0
  0
LINE
  5
2A4
330
1F
100
AcDbEntity
  8
101
  6
Continuous
 62
     7
370
    30
100
AcDbLine
 10
149.6203987730057
 20
73.4581532348019
 30
0.0
 11
149.9613078639147
 21
70.44678959843827
 31
0.0
  0
LINE
  5
2A5
330
1F
100
AcDbEntity
  8
101
  6
Continuous
 62
     7
370
    30
100
AcDbLine
 10
149.9613078639147
 20
70.44678959843827
 30
0.0
 11
150.0181260457329
 21
66.8388350529838
 31
0.0
  0
LINE
  5
2A6
330
1F
100
AcDbEntity
  8
101
  6
Continuous
 62
     7
370
    30
100
AcDbLine
 10
150.0181260457329
 20
66.8388350529838
 30
0.0
 11
149.2510805911875
 21
64.67974414389289
 31
0.0
  0
LINE
  5
2A7
330
1F
100
AcDbEntity
  8
101
  6
Continuous
 62
     7
370
    30
100
AcDbLine
 10
149.2510805911875
 20
64.67974414389289
 30
0.0
 11
148.171535136642
 21
63.11724414389289
 31
0.0
  0
LINE
  5
2A8
330
1F
100
AcDbEntity
  8
101
  6
Continuous
 62
     7
370
    30
100
AcDbLine
 10
148.171535136642
 20
63.11724414389289
 30
0.0
 11
146.0976715002784
 21
60.61724414389289
 31
0.0
  0
LINE
  5
2A9
330
1F
100
AcDbEntity
  8
101
  6
Continuous
 62
     7
370
    30
100
AcDbLine
 10
146.0976715002784
 20
60.61724414389289
 30
0.0
 11
143.4840351366421
 21
58.3729259620747
 31
0.0
  0
LINE
  5
2AA
330
1F
100
AcDbEntity
  8
101
  6
Continuous
 62
     7
370
    30
100
AcDbLine
 10
143.4840351366421
 20
58.3729259620747
 30
0.0
 11
139.5635805911875
 21
55.8729259620747
 31
0.0
  0
LINE
  5
2AB
330
1F
100
AcDbEntity
  8
101
  6
Continuous
 62
     7
370
    30
100
AcDbLine
 10
139.5635805911875
 20
55.8729259620747
 30
0.0
 11
135.9272169548239
 21
53.96951687116564
 31
0.0
  0
LINE
  5
2AC
330
1F
100
AcDbEntity
  8
101
  6
Continuous
 62
     7
370
    30
100
AcDbLine
 10
135.9272169548239
 20
53.96951687116564
 30
0.0
 11
132.205626045733
 21
52.37860778025654
 31
0.0
  0
LINE
  5
2AD
330
1F
100
AcDbEntity
  8
101
  6
Continuous
 62
     7
370
    30
100
AcDbLine
 10
132.205626045733
 20
52.37860778025654
 30
0.0
 11
124.1658533184603
 21
49.73656232571111
 31
0.0
  0
LINE
  5
2AE
330
1F
100
AcDbEntity
  8
101
  6
Continuous
 62
     7
370
    30
100
AcDbLine
 10
124.1658533184603
 20
49.73656232571111
 30
0.0
 11
118.114716954824
 21
48.34451687116567
 31
0.0
  0
LINE
  5
2AF
330
1F
100
AcDbEntity
  8
101
  6
Continuous
 62
     7
370
    30
100
AcDbLine
 10
118.114716954824
 20
48.34451687116567
 30
0.0
 11
111.3533533184603
 21
47.15133505298385
 31
0.0
  0
LINE
  5
2B0
330
1F
100
AcDbEntity
  8
101
  6
Continuous
 62
     7
370
    30
100
AcDbLine
 10
111.3533533184603
 20
47.15133505298385
 30
0.0
 11
106.4953987730058
 21
46.41269868934748
 31
0.0
  0
LINE
  5
2B1
330
1F
100
AcDbEntity
  8
101
  6
Continuous
 62
     7
370
    30
100
AcDbLine
 10
106.4953987730058
 20
46.41269868934748
 30
0.0
 11
101.8931260457331
 21
45.87292596207476
 31
0.0
  0
LINE
  5
2B2
330
1F
100
AcDbEntity
  8
101
  6
Continuous
 62
     7
370
    30
100
AcDbLine
 10
101.8931260457331
 20
45.87292596207476
 30
0.0
 11
96.35335331846039
 21
45.61724414389295
 31
0.0
  0
LINE
  5
2B3
330
1F
100
AcDbEntity
  8
101
  6
Continuous
 62
     7
370
    30
100
AcDbLine
 10
96.35335331846039
 20
45.61724414389295
 30
0.0
 11
89.90448968209682
 21
45.47519868934751
 31
0.0
  0
LINE
  5
2B4
330
1F
100
AcDbEntity
  8
101
  6
Continuous
 62
     7
370
    30
100
AcDbLine
 10
89.90448968209682
 20
45.47519868934751
 30
0.0
 11
82.74539877300592
 21
45.30474414389295
 31
0.0
  0
LINE
  5
2B5
330
1F
100
AcDbEntity
  8
101
  6
Continuous
 62
     7
370
    30
100
AcDbLine
 10
82.74539877300592
 20
45.30474414389295
 30
0.0
 11
75.75676240936957
 21
45.92974414389295
 31
0.0
  0
LINE
  5
2B6
330
1F
100
AcDbEntity
  8
101
  6
Continuous
 62
     7
370
    30
100
AcDbLine
 10
75.75676240936957
 20
45.92974414389295
 30
0.0
 11
66.38176240936963
 21
47.06610778025657
 31
0.0
  0
LINE
  5
2B7
330
1F
100
AcDbEntity
  8
101
  6
Continuous
 62
     7
370
    30
100
AcDbLine
 10
66.38176240936963
 20
47.06610778025657
 30
0.0
 11
56.77948968209694
 21
49.11156232571111
 31
0.0
  0
LINE
  5
2B8
330
1F
100
AcDbEntity
  8
101
  6
Continuous
 62
     7
370
    30
100
AcDbLine
 10
56.77948968209694
 20
49.11156232571111
 30
0.0
 11
51.77948968209694
 21
50.41838050752929
 31
0.0
  0
LINE
  5
2B9
330
1F
100
AcDbEntity
  8
101
  6
Continuous
 62
     7
370
    30
100
AcDbLine
 10
51.77948968209694
 20
50.41838050752929
 30
0.0
 11
47.12039877300606
 21
51.89565323480201
 31
0.0
  0
LINE
  5
2BA
330
1F
100
AcDbEntity
  8
101
  6
Continuous
 62
     7
370
    30
100
AcDbLine
 10
47.12039877300606
 20
51.89565323480201
 30
0.0
 11
42.74539877300609
 21
53.54338050752926
 31
0.0
  0
LINE
  5
2BB
330
1F
100
AcDbEntity
  8
101
  6
Continuous
 62
     7
370
    30
100
AcDbLine
 10
42.74539877300609
 20
53.54338050752926
 30
0.0
 11
37.91585331846065
 21
55.70247141662017
 31
0.0
  0
LINE
  5
2BC
330
1F
100
AcDbEntity
  8
101
  6
Continuous
 62
     7
370
    30
100
AcDbLine
 10
37.91585331846065
 20
55.70247141662017
 30
0.0
 11
34.62039877300612
 21
58.20247141662017
 31
0.0
  0
LINE
  5
2BD
330
1F
100
AcDbEntity
  8
101
  6
Continuous
 62
     7
370
    30
100
AcDbLine
 10
34.62039877300612
 20
58.20247141662017
 30
0.0
 11
31.38176240936974
 21
60.70247141662014
 31
0.0
  0
LINE
  5
2BE
330
1F
100
AcDbEntity
  8
101
  6
Continuous
 62
     7
370
    30
100
AcDbLine
 10
31.38176240936974
 20
60.70247141662014
 30
0.0
 11
29.22267150027886
 21
63.60019868934742
 31
0.0
  0
LINE
  5
2BF
330
1F
100
AcDbEntity
  8
101
  6
Continuous
 62
     7
370
    30
100
AcDbLine
 10
29.22267150027886
 20
63.60019868934742
 30
0.0
 11
27.68858059118796
 21
66.61156232571105
 31
0.0
  0
LINE
  5
2C0
330
1F
100
AcDbEntity
  8
101
  6
Continuous
 62
     7
370
    30
100
AcDbLine
 10
27.68858059118796
 20
66.61156232571105
 30
0.0
 11
27.5181260457334
 21
69.50928959843827
 31
0.0
  0
LINE
  5
2C1
330
1F
100
AcDbEntity
  8
101
  6
Continuous
 62
     7
370
    30
100
AcDbLine
 10
27.5181260457334
 20
69.50928959843827
 30
0.0
 11
27.57494422755158
 21
72.69110778025646
 31
0.0
  0
LINE
  5
2C2
330
1F
100
AcDbEntity
  8
101
  6
Continuous
 62
     7
370
    30
100
AcDbLine
 10
27.57494422755158
 20
72.69110778025646
 30
0.0
 11
29.0522169548243
 21
76.15701687116552
 31
0.0
  0
LINE
  5
2C3
330
1F
100
AcDbEntity
  8
101
  6
Continuous
 62
     7
370
    30
100
AcDbLine
 10
29.0522169548243
 20
76.15701687116552
 30
0.0
 11
31.77948968209702
 21
79.22519868934734
 31
0.0
  0
LINE
  5
2C4
330
1F
100
AcDbEntity
  8
101
  6
Continuous
 62
     7
370
    30
100
AcDbLine
 10
31.77948968209702
 20
79.22519868934734
 30
0.0
 11
34.16585331846065
 21
81.38428959843824
 31
0.0
  0
LINE
  5
2C5
330
1F
100
AcDbEntity
  8
101
  6
Continuous
 62
     7
370
    30
100
AcDbLine
 10
34.16585331846065
 20
81.38428959843824
 30
0.0
 11
37.23403513664246
 21
83.31610778025643
 31
0.0
  0
LINE
  5
2C6
330
1F
100
AcDbEntity
  8
101
  6
Continuous
 62
     7
370
    30
100
AcDbLine
 10
37.23403513664246
 20
83.31610778025643
 30
0.0
 11
38.87798317470543
 21
84.22510568804688
 31
0.0
  0
LINE
  5
2C7
330
1F
100
AcDbEntity
  8
101
  6
Continuous
 62
     7
370
    30
100
AcDbLine
 10
27.55569088764952
 20
71.61292074574175
 30
0.0
 11
27.91585331846068
 21
68.99792596207465
 31
0.0
  0
LINE
  5
2C8
330
1F
100
AcDbEntity
  8
101
  6
Continuous
 62
     7
370
    30
100
AcDbLine
 10
27.91585331846068
 20
68.99792596207465
 30
0.0
 11
28.56926240936977
 21
66.86724414389283
 31
0.0
  0
LINE
  5
2C9
330
1F
100
AcDbEntity
  8
101
  6
Continuous
 62
     7
370
    30
100
AcDbLine
 10
28.56926240936977
 20
66.86724414389283
 30
0.0
 11
29.84767150027884
 21
65.21951687116558
 31
0.0
  0
LINE
  5
2CA
330
1F
100
AcDbEntity
  8
101
  6
Continuous
 62
     7
370
    30
100
AcDbLine
 10
29.84767150027884
 20
65.21951687116558
 30
0.0
 11
32.00676240936974
 21
62.80474414389286
 31
0.0
  0
LINE
  5
2CB
330
1F
100
AcDbEntity
  8
101
  6
Continuous
 62
     7
370
    30
100
AcDbLine
 10
32.00676240936974
 20
62.80474414389286
 30
0.0
 11
35.61471695482427
 21
60.16269868934742
 31
0.0
  0
LINE
  5
2CC
330
1F
100
AcDbEntity
  8
101
  6
Continuous
 62
     7
370
    30
100
AcDbLine
 10
35.61471695482427
 20
60.16269868934742
 30
0.0
 11
41.46698968209697
 21
56.78201687116564
 31
0.0
  0
LINE
  5
2CD
330
1F
100
AcDbEntity
  8
101
  6
Continuous
 62
     7
370
    30
100
AcDbLine
 10
41.46698968209697
 20
56.78201687116564
 30
0.0
 11
47.29085331846056
 21
54.33883505298382
 31
0.0
  0
LINE
  5
2CE
330
1F
100
AcDbEntity
  8
101
  6
Continuous
 62
     7
370
    30
100
AcDbLine
 10
47.29085331846056
 20
54.33883505298382
 30
0.0
 11
53.34198968209694
 21
52.29338050752929
 31
0.0
  0
LINE
  5
2CF
330
1F
100
AcDbEntity
  8
101
  6
Continuous
 62
     7
370
    30
100
AcDbLine
 10
53.34198968209694
 20
52.29338050752929
 30
0.0
 11
59.96130786391507
 21
50.81610778025657
 31
0.0
  0
LINE
  5
2D0
330
1F
100
AcDbEntity
  8
101
  6
Continuous
 62
     7
370
    30
100
AcDbLine
 10
59.96130786391507
 20
50.81610778025657
 30
0.0
 11
66.7226715002787
 21
49.65133505298385
 31
0.0
  0
LINE
  5
2D1
330
1F
100
AcDbEntity
  8
101
  6
Continuous
 62
     7
370
    30
100
AcDbLine
 10
66.7226715002787
 20
49.65133505298385
 30
0.0
 11
74.42153513664226
 21
48.82747141662023
 31
0.0
  0
LINE
  5
2D2
330
1F
100
AcDbEntity
  8
101
  6
Continuous
 62
     7
370
    30
100
AcDbLine
 10
74.42153513664226
 20
48.82747141662023
 30
0.0
 11
81.4385805911877
 21
48.31610778025657
 31
0.0
  0
LINE
  5
2D3
330
1F
100
AcDbEntity
  8
101
  6
Continuous
 62
     7
370
    30
100
AcDbLine
 10
81.4385805911877
 20
48.31610778025657
 30
0.0
 11
87.09198968209677
 21
48.06042596207476
 31
0.0
  0
LINE
  5
2D4
330
1F
100
AcDbEntity
  8
101
  6
Continuous
 62
     7
370
    30
100
AcDbLine
 10
87.09198968209677
 20
48.06042596207476
 30
0.0
 11
94.19426240936949
 21
47.86156232571113
 31
0.0
  0
LINE
  5
2D5
330
1F
100
AcDbEntity
  8
101
  6
Continuous
 62
     7
370
    30
100
AcDbLine
 10
94.19426240936949
 20
47.86156232571113
 30
0.0
 11
100.8988078639149
 21
48.11724414389295
 31
0.0
  0
LINE
  5
2D6
330
1F
100
AcDbEntity
  8
101
  6
Continuous
 62
     7
370
    30
100
AcDbLine
 10
100.8988078639149
 20
48.11724414389295
 30
0.0
 11
106.4101715002785
 21
48.60019868934751
 31
0.0
  0
LINE
  5
2D7
330
1F
100
AcDbEntity
  8
101
  6
Continuous
 62
     7
370
    30
100
AcDbLine
 10
106.4101715002785
 20
48.60019868934751
 30
0.0
 11
116.7794896820967
 21
50.19110778025657
 31
0.0
  0
LINE
  5
2D8
330
1F
100
AcDbEntity
  8
101
  6
Continuous
 62
     7
370
    30
100
AcDbLine
 10
116.7794896820967
 20
50.19110778025657
 30
0.0
 11
123.6260805911876
 21
51.89565323480201
 31
0.0
  0
LINE
  5
2D9
330
1F
100
AcDbEntity
  8
101
  6
Continuous
 62
     7
370
    30
100
AcDbLine
 10
123.6260805911876
 20
51.89565323480201
 30
0.0
 11
130.330626045733
 21
53.91269868934748
 31
0.0
  0
LINE
  5
2DA
330
1F
100
AcDbEntity
  8
101
  6
Continuous
 62
     7
370
    30
100
AcDbLine
 10
130.330626045733
 20
53.91269868934748
 30
0.0
 11
137.830626045733
 21
56.9524714166202
 31
0.0
  0
LINE
  5
2DB
330
1F
100
AcDbEntity
  8
101
  6
Continuous
 62
     7
370
    30
100
AcDbLine
 10
137.830626045733
 20
56.9524714166202
 30
0.0
 11
141.3249442275512
 21
59.11156232571111
 31
0.0
  0
LINE
  5
2DC
330
1F
100
AcDbEntity
  8
101
  6
Continuous
 62
     7
370
    30
100
AcDbLine
 10
141.3249442275512
 20
59.11156232571111
 30
0.0
 11
143.768126045733
 21
60.87292596207473
 31
0.0
  0
LINE
  5
2DD
330
1F
100
AcDbEntity
  8
101
  6
Continuous
 62
     7
370
    30
100
AcDbLine
 10
143.768126045733
 20
60.87292596207473
 30
0.0
 11
146.268126045733
 21
62.91838050752926
 31
0.0
  0
LINE
  5
2DE
330
1F
100
AcDbEntity
  8
101
  6
Continuous
 62
     7
370
    30
100
AcDbLine
 10
146.268126045733
 20
62.91838050752926
 30
0.0
 11
148.3419896820965
 21
65.70247141662017
 31
0.0
  0
LINE
  5
2DF
330
1F
100
AcDbEntity
  8
101
  6
Continuous
 62
     7
370
    30
100
AcDbLine
 10
148.3419896820965
 20
65.70247141662017
 30
0.0
 11
149.2794896820965
 21
67.66269868934742
 31
0.0
  0
LINE
  5
2E0
330
1F
100
AcDbEntity
  8
101
  6
Continuous
 62
     7
370
    30
100
AcDbLine
 10
149.2794896820965
 20
67.66269868934742
 30
0.0
 11
149.9355449624928
 21
70.67436189433224
 31
0.0
  0
LINE
  5
2E1
330
1F
100
AcDbEntity
  8
101
  6
Continuous
 62
     7
370
    30
100
AcDbLine
 10
140.7567624093693
 20
75.4183805075292
 30
0.0
 11
141.1828987730057
 21
76.46951687116558
 31
0.0
  0
LINE
  5
2E2
330
1F
100
AcDbEntity
  8
101
  6
Continuous
 62
     7
370
    30
100
AcDbLine
 10
141.1828987730057
 20
76.46951687116558
 30
0.0
 11
142.234035136642
 21
77.2933805075292
 31
0.0
  0
LINE
  5
2E3
330
1F
100
AcDbEntity
  8
101
  6
Continuous
 62
     7
370
    30
100
AcDbLine
 10
142.234035136642
 20
77.2933805075292
 30
0.0
 11
143.5976715002784
 21
77.43542596207465
 31
0.0
  0
LINE
  5
2E4
330
1F
100
AcDbEntity
  8
101
  6
Continuous
 62
     7
370
    30
100
AcDbLine
 10
143.5976715002784
 20
77.43542596207465
 30
0.0
 11
145.0181260457329
 21
77.23656232571102
 31
0.0
  0
LINE
  5
2E5
330
1F
100
AcDbEntity
  8
101
  6
Continuous
 62
     7
370
    30
100
AcDbLine
 10
145.0181260457329
 20
77.23656232571102
 30
0.0
 11
146.0124442275511
 21
76.7251986893474
 31
0.0
  0
LINE
  5
2E6
330
1F
100
AcDbEntity
  8
101
  6
Continuous
 62
     7
370
    30
100
AcDbLine
 10
146.0124442275511
 20
76.7251986893474
 30
0.0
 11
146.6942624093693
 21
75.67406232571102
 31
0.0
  0
LINE
  5
2E7
330
1F
100
AcDbEntity
  8
101
  6
Continuous
 62
     7
370
    30
100
AcDbLine
 10
146.6942624093693
 20
75.67406232571102
 30
0.0
 11
146.7510805911875
 21
75.1058805075292
 31
0.0
  0
LINE
  5
2E8
330
1F
100
AcDbEntity
  8
101
  6
Continuous
 62
     7
370
    30
100
AcDbLine
 10
146.7510805911875
 20
75.1058805075292
 30
0.0
 11
146.7510805911875
 21
74.56610778025649
 31
0.0
  0
LINE
  5
2E9
330
1F
100
AcDbEntity
  8
101
  6
Continuous
 62
     7
370
    30
100
AcDbLine
 10
146.7510805911875
 20
74.56610778025649
 30
0.0
 11
146.3249442275511
 21
74.02633505298377
 31
0.0
  0
LINE
  5
2EA
330
1F
100
AcDbEntity
  8
101
  6
Continuous
 62
     7
370
    30
100
AcDbLine
 10
146.3249442275511
 20
74.02633505298377
 30
0.0
 11
145.671535136642
 21
73.79906232571105
 31
0.0
  0
LINE
  5
2EB
330
1F
100
AcDbEntity
  8
101
  6
Continuous
 62
     7
370
    30
100
AcDbLine
 10
145.671535136642
 20
73.79906232571105
 30
0.0
 11
144.5635805911875
 21
73.71383505298377
 31
0.0
  0
LINE
  5
2EC
330
1F
100
AcDbEntity
  8
101
  6
Continuous
 62
     7
370
    30
100
AcDbLine
 10
144.5635805911875
 20
73.71383505298377
 30
0.0
 11
143.0863078639148
 21
73.77065323480196
 31
0.0
  0
LINE
  5
2ED
330
1F
100
AcDbEntity
  8
101
  6
Continuous
 62
     7
370
    30
100
AcDbLine
 10
143.0863078639148
 20
73.77065323480196
 30
0.0
 11
142.0067624093693
 21
74.02633505298377
 31
0.0
  0
LINE
  5
2EE
330
1F
100
AcDbEntity
  8
101
  6
Continuous
 62
     7
370
    30
100
AcDbLine
 10
142.0067624093693
 20
74.02633505298377
 30
0.0
 11
141.3249442275511
 21
74.4808805075292
 31
0.0
  0
LINE
  5
2EF
330
1F
100
AcDbEntity
  8
101
  6
Continuous
 62
     7
370
    30
100
AcDbLine
 10
141.3249442275511
 20
74.4808805075292
 30
0.0
 11
141.0124442275511
 21
74.7933805075292
 31
0.0
  0
LINE
  5
2F0
330
1F
100
AcDbEntity
  8
101
  6
Continuous
 62
     7
370
    30
100
AcDbLine
 10
141.0124442275511
 20
74.7933805075292
 30
0.0
 11
140.7567624093693
 21
75.4183805075292
 31
0.0
  0
LINE
  5
2F1
330
1F
100
AcDbEntity
  8
101
  6
Continuous
 62
     7
370
    30
100
AcDbLine
 10
82.97267150027861
 20
51.72519868934751
 30
0.0
 11
83.19994422755133
 21
52.97519868934751
 31
0.0
  0
LINE
  5
2F2
330
1F
100
AcDbEntity
  8
101
  6
Continuous
 62
     7
370
    30
100
AcDbLine
 10
83.19994422755133
 20
52.97519868934751
 30
0.0
 11
83.9385805911877
 21
53.99792596207476
 31
0.0
  0
LINE
  5
2F3
330
1F
100
AcDbEntity
  8
101
  6
Continuous
 62
     7
370
    30
100
AcDbLine
 10
83.9385805911877
 20
53.99792596207476
 30
0.0
 11
84.98971695482405
 21
54.65133505298385
 31
0.0
  0
LINE
  5
2F4
330
1F
100
AcDbEntity
  8
101
  6
Continuous
 62
     7
370
    30
100
AcDbLine
 10
84.98971695482405
 20
54.65133505298385
 30
0.0
 11
86.16159195482405
 21
54.8430964166202
 31
0.0
  0
LINE
  5
2F5
330
1F
100
AcDbEntity
  8
101
  6
Continuous
 62
     7
370
    30
100
AcDbLine
 10
86.16159195482405
 20
54.8430964166202
 30
0.0
 11
87.11329650027858
 21
54.80758505298385
 31
0.0
  0
LINE
  5
2F6
330
1F
100
AcDbEntity
  8
101
  6
Continuous
 62
     7
370
    30
100
AcDbLine
 10
87.11329650027858
 20
54.80758505298385
 30
0.0
 11
87.9371601366422
 21
54.60161914389295
 31
0.0
  0
LINE
  5
2F7
330
1F
100
AcDbEntity
  8
101
  6
Continuous
 62
     7
370
    30
100
AcDbLine
 10
87.9371601366422
 20
54.60161914389295
 30
0.0
 11
88.64738740936949
 21
54.07605096207476
 31
0.0
  0
LINE
  5
2F8
330
1F
100
AcDbEntity
  8
101
  6
Continuous
 62
     7
370
    30
100
AcDbLine
 10
88.64738740936949
 20
54.07605096207476
 30
0.0
 11
89.09483059118764
 21
53.6712214166202
 31
0.0
  0
LINE
  5
2F9
330
1F
100
AcDbEntity
  8
101
  6
Continuous
 62
     7
370
    30
100
AcDbLine
 10
89.09483059118764
 20
53.6712214166202
 30
0.0
 11
89.42863740936946
 21
53.25218732571113
 31
0.0
  0
LINE
  5
2FA
330
1F
100
AcDbEntity
  8
101
  6
Continuous
 62
     7
370
    30
100
AcDbLine
 10
89.42863740936946
 20
53.25218732571113
 30
0.0
 11
89.61329650027852
 21
52.66980096207476
 31
0.0
  0
LINE
  5
2FB
330
1F
100
AcDbEntity
  8
101
  6
Continuous
 62
     7
370
    30
100
AcDbLine
 10
89.61329650027852
 20
52.66980096207476
 30
0.0
 11
89.69142150027852
 21
52.05900550752932
 31
0.0
  0
LINE
  5
2FC
330
1F
100
AcDbEntity
  8
101
  6
Continuous
 62
     7
370
    30
100
AcDbLine
 10
89.69142150027852
 20
52.05900550752932
 30
0.0
 11
89.59198968209674
 21
51.54764187116567
 31
0.0
  0
LINE
  5
2FD
330
1F
100
AcDbEntity
  8
101
  6
Continuous
 62
     7
370
    30
100
AcDbLine
 10
89.59198968209674
 20
51.54764187116567
 30
0.0
 11
89.35051240936946
 21
51.07889187116567
 31
0.0
  0
LINE
  5
2FE
330
1F
100
AcDbEntity
  8
101
  6
Continuous
 62
     7
370
    30
100
AcDbLine
 10
89.35051240936946
 20
51.07889187116567
 30
0.0
 11
89.01670559118764
 21
50.65985778025657
 31
0.0
  0
LINE
  5
2FF
330
1F
100
AcDbEntity
  8
101
  6
Continuous
 62
     7
370
    30
100
AcDbLine
 10
89.01670559118764
 20
50.65985778025657
 30
0.0
 11
88.60477377300583
 21
50.24792596207476
 31
0.0
  0
LINE
  5
300
330
1F
100
AcDbEntity
  8
101
  6
Continuous
 62
     7
370
    30
100
AcDbLine
 10
88.60477377300583
 20
50.24792596207476
 30
0.0
 11
88.00818286391493
 21
50.03485778025657
 31
0.0
  0
LINE
  5
301
330
1F
100
AcDbEntity
  8
101
  6
Continuous
 62
     7
370
    30
100
AcDbLine
 10
88.00818286391493
 20
50.03485778025657
 30
0.0
 11
87.17011468209677
 21
49.92832368934748
 31
0.0
  0
LINE
  5
302
330
1F
100
AcDbEntity
  8
101
  6
Continuous
 62
     7
370
    30
100
AcDbLine
 10
87.17011468209677
 20
49.92832368934748
 30
0.0
 11
86.4030692275513
 21
49.91411914389295
 31
0.0
  0
LINE
  5
303
330
1F
100
AcDbEntity
  8
101
  6
Continuous
 62
     7
370
    30
100
AcDbLine
 10
86.4030692275513
 20
49.91411914389295
 30
0.0
 11
85.78517150027858
 21
49.92832368934748
 31
0.0
  0
LINE
  5
304
330
1F
100
AcDbEntity
  8
101
  6
Continuous
 62
     7
370
    30
100
AcDbLine
 10
85.78517150027858
 20
49.92832368934748
 30
0.0
 11
84.92579650027858
 21
50.06326687116567
 31
0.0
  0
LINE
  5
305
330
1F
100
AcDbEntity
  8
101
  6
Continuous
 62
     7
370
    30
100
AcDbLine
 10
84.92579650027858
 20
50.06326687116567
 30
0.0
 11
84.22267150027858
 21
50.26213050752932
 31
0.0
  0
LINE
  5
306
330
1F
100
AcDbEntity
  8
101
  6
Continuous
 62
     7
370
    30
100
AcDbLine
 10
84.22267150027858
 20
50.26213050752932
 30
0.0
 11
83.67579650027858
 21
50.61014187116567
 31
0.0
  0
LINE
  5
307
330
1F
100
AcDbEntity
  8
101
  6
Continuous
 62
     7
370
    30
100
AcDbLine
 10
83.67579650027858
 20
50.61014187116567
 30
0.0
 11
83.34198968209677
 21
50.90843732571113
 31
0.0
  0
LINE
  5
308
330
1F
100
AcDbEntity
  8
101
  6
Continuous
 62
     7
370
    30
100
AcDbLine
 10
83.34198968209677
 20
50.90843732571113
 30
0.0
 11
83.10761468209677
 21
51.29906232571113
 31
0.0
  0
LINE
  5
309
330
1F
100
AcDbEntity
  8
101
  6
Continuous
 62
     7
370
    30
100
AcDbLine
 10
83.10761468209677
 20
51.29906232571113
 30
0.0
 11
82.97267150027861
 21
51.72519868934751
 31
0.0
  0
LINE
  5
30A
330
1F
100
AcDbEntity
  8
101
  6
Continuous
 62
     7
370
    30
100
AcDbLine
 10
31.53091013664249
 20
76.44110778025646
 30
0.0
 11
32.01386468209705
 21
75.88713050752918
 31
0.0
  0
LINE
  5
30B
330
1F
100
AcDbEntity
  8
101
  6
Continuous
 62
     7
370
    30
100
AcDbLine
 10
32.01386468209705
 20
75.88713050752918
 30
0.0
 11
32.76670559118793
 21
75.41838050752918
 31
0.0
  0
LINE
  5
30C
330
1F
100
AcDbEntity
  8
101
  6
Continuous
 62
     7
370
    30
100
AcDbLine
 10
32.76670559118793
 20
75.41838050752918
 30
0.0
 11
34.08772831846068
 21
75.31894868934737
 31
0.0
  0
LINE
  5
30D
330
1F
100
AcDbEntity
  8
101
  6
Continuous
 62
     7
370
    30
100
AcDbLine
 10
34.08772831846068
 20
75.31894868934737
 30
0.0
 11
35.39454650027884
 21
75.34735778025646
 31
0.0
  0
LINE
  5
30E
330
1F
100
AcDbEntity
  8
101
  6
Continuous
 62
     7
370
    30
100
AcDbLine
 10
35.39454650027884
 20
75.34735778025646
 30
0.0
 11
36.55931922755155
 21
75.4894032348019
 31
0.0
  0
LINE
  5
30F
330
1F
100
AcDbEntity
  8
101
  6
Continuous
 62
     7
370
    30
100
AcDbLine
 10
36.55931922755155
 20
75.4894032348019
 30
0.0
 11
37.17011468209699
 21
75.78769868934734
 31
0.0
  0
LINE
  5
310
330
1F
100
AcDbEntity
  8
101
  6
Continuous
 62
     7
370
    30
100
AcDbLine
 10
37.17011468209699
 20
75.78769868934734
 30
0.0
 11
37.44000104573337
 21
76.04338050752918
 31
0.0
  0
LINE
  5
311
330
1F
100
AcDbEntity
  8
101
  6
Continuous
 62
     7
370
    30
100
AcDbLine
 10
37.44000104573337
 20
76.04338050752918
 30
0.0
 11
37.59625104573337
 21
77.00928959843827
 31
0.0
  0
LINE
  5
312
330
1F
100
AcDbEntity
  8
101
  6
Continuous
 62
     7
370
    30
100
AcDbLine
 10
37.59625104573337
 20
77.00928959843827
 30
0.0
 11
37.52522831846065
 21
77.46383505298371
 31
0.0
  0
LINE
  5
313
330
1F
100
AcDbEntity
  8
101
  6
Continuous
 62
     7
370
    30
100
AcDbLine
 10
37.52522831846065
 20
77.46383505298371
 30
0.0
 11
37.36897831846065
 21
78.06042596207462
 31
0.0
  0
LINE
  5
314
330
1F
100
AcDbEntity
  8
101
  6
Continuous
 62
     7
370
    30
100
AcDbLine
 10
37.36897831846065
 20
78.06042596207462
 30
0.0
 11
37.07068286391518
 21
78.6144032348019
 31
0.0
  0
LINE
  5
315
330
1F
100
AcDbEntity
  8
101
  6
Continuous
 62
     7
370
    30
100
AcDbLine
 10
37.07068286391518
 20
78.6144032348019
 30
0.0
 11
36.26102377300612
 21
78.96951687116552
 31
0.0
  0
LINE
  5
316
330
1F
100
AcDbEntity
  8
101
  6
Continuous
 62
     7
370
    30
100
AcDbLine
 10
36.26102377300612
 20
78.96951687116552
 30
0.0
 11
35.42295559118793
 21
79.05474414389278
 31
0.0
  0
LINE
  5
317
330
1F
100
AcDbEntity
  8
101
  6
Continuous
 62
     7
370
    30
100
AcDbLine
 10
35.42295559118793
 20
79.05474414389278
 30
0.0
 11
34.17295559118793
 21
79.05474414389278
 31
0.0
  0
LINE
  5
318
330
1F
100
AcDbEntity
  8
101
  6
Continuous
 62
     7
370
    30
100
AcDbLine
 10
34.17295559118793
 20
79.05474414389278
 30
0.0
 11
33.24966013664249
 21
78.72803959843824
 31
0.0
  0
LINE
  5
319
330
1F
100
AcDbEntity
  8
101
  6
Continuous
 62
     7
370
    30
100
AcDbLine
 10
33.24966013664249
 20
78.72803959843824
 30
0.0
 11
32.26954650027886
 21
78.31610778025643
 31
0.0
  0
LINE
  5
31A
330
1F
100
AcDbEntity
  8
101
  6
Continuous
 62
     7
370
    30
100
AcDbLine
 10
32.26954650027886
 20
78.31610778025643
 30
0.0
 11
31.61613740936977
 21
77.81894868934734
 31
0.0
  0
LINE
  5
31B
330
1F
100
AcDbEntity
  8
101
  6
Continuous
 62
     7
370
    30
100
AcDbLine
 10
31.61613740936977
 20
77.81894868934734
 30
0.0
 11
31.36045559118796
 21
77.25076687116552
 31
0.0
  0
LINE
  5
31C
330
1F
100
AcDbEntity
  8
101
  6
Continuous
 62
     7
370
    30
100
AcDbLine
 10
31.36045559118796
 20
77.25076687116552
 30
0.0
 11
31.3462510457334
 21
76.83883505298371
 31
0.0
  0
LINE
  5
31D
330
1F
100
AcDbEntity
  8
101
  6
Continuous
 62
     7
370
    30
100
AcDbLine
 10
31.3462510457334
 20
76.83883505298371
 30
0.0
 11
31.53091013664249
 21
76.44110778025646
 31
0.0
  0
LINE
  5
31E
330
1F
100
AcDbEntity
  8
101
  6
Continuous
 62
     7
370
    30
100
AcDbLine
 10
35.39454650027884
 20
76.48372141662009
 30
0.0
 11
36.28943286391518
 21
76.66838050752915
 31
0.0
  0
LINE
  5
31F
330
1F
100
AcDbEntity
  8
101
  6
Continuous
 62
     7
370
    30
100
AcDbLine
 10
36.28943286391518
 20
76.66838050752915
 30
0.0
 11
36.91443286391518
 21
77.00928959843824
 31
0.0
  0
LINE
  5
320
330
1F
100
AcDbEntity
  8
101
  6
Continuous
 62
     7
370
    30
100
AcDbLine
 10
35.39454650027884
 20
76.48372141662009
 30
0.0
 11
34.61329650027884
 21
76.45531232571096
 31
0.0
  0
LINE
  5
321
330
1F
100
AcDbEntity
  8
101
  6
Continuous
 62
     7
370
    30
100
AcDbLine
 10
34.61329650027884
 20
76.45531232571096
 30
0.0
 11
33.44852377300612
 21
76.5547441438928
 31
0.0
  0
LINE
  5
322
330
1F
100
AcDbEntity
  8
101
  6
Continuous
 62
     7
370
    30
100
AcDbLine
 10
33.44852377300612
 20
76.5547441438928
 30
0.0
 11
32.76670559118793
 21
76.79622141662009
 31
0.0
  0
LINE
  5
323
330
1F
100
AcDbEntity
  8
101
  6
Continuous
 62
     7
370
    30
100
AcDbLine
 10
32.76670559118793
 20
76.79622141662009
 30
0.0
 11
32.46841013664249
 21
76.98088050752915
 31
0.0
  0
LINE
  5
324
330
1F
100
AcDbEntity
  8
101
  6
Continuous
 62
     7
370
    30
100
AcDbLine
 10
32.46841013664249
 20
76.98088050752915
 30
0.0
 11
32.14170559118793
 21
77.32178959843824
 31
0.0
  0
LINE
  5
325
330
1F
100
AcDbEntity
  8
101
  6
Continuous
 62
     7
370
    30
100
AcDbLine
 10
83.76102377300583
 20
52.37860778025657
 30
0.0
 11
84.41443286391493
 21
51.66838050752929
 31
0.0
  0
LINE
  5
326
330
1F
100
AcDbEntity
  8
101
  6
Continuous
 62
     7
370
    30
100
AcDbLine
 10
84.41443286391493
 20
51.66838050752929
 30
0.0
 11
85.20988740936946
 21
51.29906232571111
 31
0.0
  0
LINE
  5
327
330
1F
100
AcDbEntity
  8
101
  6
Continuous
 62
     7
370
    30
100
AcDbLine
 10
85.20988740936946
 20
51.29906232571111
 30
0.0
 11
86.43147831846036
 21
51.21383505298382
 31
0.0
  0
LINE
  5
328
330
1F
100
AcDbEntity
  8
101
  6
Continuous
 62
     7
370
    30
100
AcDbLine
 10
86.43147831846036
 20
51.21383505298382
 30
0.0
 11
87.79511468209671
 21
51.35588050752929
 31
0.0
  0
LINE
  5
329
330
1F
100
AcDbEntity
  8
101
  6
Continuous
 62
     7
370
    30
100
AcDbLine
 10
87.79511468209671
 20
51.35588050752929
 30
0.0
 11
88.50534195482399
 21
51.72519868934745
 31
0.0
  0
LINE
  5
32A
330
1F
100
AcDbEntity
  8
101
  6
Continuous
 62
     7
370
    30
100
AcDbLine
 10
88.50534195482399
 20
51.72519868934745
 30
0.0
 11
88.81784195482399
 21
51.9524714166202
 31
0.0
  0
LINE
  5
32B
330
1F
100
AcDbEntity
  8
101
  6
Continuous
 62
     7
370
    30
100
AcDbLine
 10
141.7723874093691
 20
76.01497141662006
 30
0.0
 11
142.05647831846
 21
75.43258505298371
 31
0.0
  0
LINE
  5
32C
330
1F
100
AcDbEntity
  8
101
  6
Continuous
 62
     7
370
    30
100
AcDbLine
 10
142.05647831846
 20
75.43258505298371
 30
0.0
 11
142.7667055911873
 21
75.06326687116552
 31
0.0
  0
LINE
  5
32D
330
1F
100
AcDbEntity
  8
101
  6
Continuous
 62
     7
370
    30
100
AcDbLine
 10
142.7667055911873
 20
75.06326687116552
 30
0.0
 11
143.5621601366418
 21
74.96383505298371
 31
0.0
  0
LINE
  5
32E
330
1F
100
AcDbEntity
  8
101
  6
Continuous
 62
     7
370
    30
100
AcDbLine
 10
143.5621601366418
 20
74.96383505298371
 30
0.0
 11
144.6559101366418
 21
74.90701687116552
 31
0.0
  0
LINE
  5
32F
330
1F
100
AcDbEntity
  8
101
  6
Continuous
 62
     7
370
    30
100
AcDbLine
 10
144.6559101366418
 20
74.90701687116552
 30
0.0
 11
145.5650010457327
 21
75.0206532348019
 31
0.0
  0
LINE
  5
330
330
1F
100
AcDbEntity
  8
101
  6
Continuous
 62
     7
370
    30
100
AcDbLine
 10
145.5650010457327
 20
75.0206532348019
 30
0.0
 11
145.9769328639145
 21
75.20531232571096
 31
0.0
  0
LINE
  5
331
330
1F
100
AcDbEntity
  8
101
  6
Continuous
 62
     7
370
    30
100
AcDbLine
 10
145.9769328639145
 20
75.20531232571096
 30
0.0
 11
146.2326146820964
 21
75.40417596207462
 31
0.0
  0
LINE
  5
332
330
1F
100
AcDbEntity
  8
101
  6
Continuous
 62
     7
370
    30
100
AcDbLine
 10
27.68858059118796
 20
66.61156232571105
 30
0.0
 11
28.45207490936968
 21
49.46667596207476
 31
0.0
  0
LINE
  5
333
330
1F
100
AcDbEntity
  8
101
  6
Continuous
 62
     7
370
    30
100
AcDbLine
 10
28.45207490936968
 20
49.46667596207476
 30
0.0
 11
28.62252945482425
 21
46.17122141662023
 31
0.0
  0
LINE
  5
334
330
1F
100
AcDbEntity
  8
101
  6
Continuous
 62
     7
370
    30
100
AcDbLine
 10
28.62252945482425
 20
46.17122141662023
 30
0.0
 11
29.6452567275515
 21
43.67122141662023
 31
0.0
  0
LINE
  5
335
330
1F
100
AcDbEntity
  8
101
  6
Continuous
 62
     7
370
    30
100
AcDbLine
 10
29.6452567275515
 20
43.67122141662023
 30
0.0
 11
32.71343854573331
 21
40.48940323480207
 31
0.0
  0
LINE
  5
336
330
1F
100
AcDbEntity
  8
101
  6
Continuous
 62
     7
370
    30
100
AcDbLine
 10
32.71343854573331
 20
40.48940323480207
 30
0.0
 11
37.0316203639151
 21
37.19394868934754
 31
0.0
  0
LINE
  5
337
330
1F
100
AcDbEntity
  8
101
  6
Continuous
 62
     7
370
    30
100
AcDbLine
 10
37.0316203639151
 20
37.19394868934754
 30
0.0
 11
42.88389309118779
 21
33.84167596207482
 31
0.0
  0
LINE
  5
338
330
1F
100
AcDbEntity
  8
101
  6
Continuous
 62
     7
370
    30
100
AcDbLine
 10
42.88389309118779
 20
33.84167596207482
 30
0.0
 11
48.39525672755141
 21
31.34167596207485
 31
0.0
  0
LINE
  5
339
330
1F
100
AcDbEntity
  8
101
  6
Continuous
 62
     7
370
    30
100
AcDbLine
 10
48.39525672755141
 20
31.34167596207485
 30
0.0
 11
56.23616581846045
 21
29.01213050752941
 31
0.0
  0
LINE
  5
33A
330
1F
100
AcDbEntity
  8
101
  6
Continuous
 62
     7
370
    30
100
AcDbLine
 10
56.23616581846045
 20
29.01213050752941
 30
0.0
 11
65.27025672755133
 21
27.19394868934759
 31
0.0
  0
LINE
  5
33B
330
1F
100
AcDbEntity
  8
101
  6
Continuous
 62
     7
370
    30
100
AcDbLine
 10
65.27025672755133
 20
27.19394868934759
 30
0.0
 11
76.63389309118762
 21
25.54622141662031
 31
0.0
  0
LINE
  5
33C
330
1F
100
AcDbEntity
  8
101
  6
Continuous
 62
     7
370
    30
100
AcDbLine
 10
118.2816203639147
 20
28.27349414389303
 30
0.0
 11
125.5543476366419
 21
30.60303959843847
 31
0.0
  0
LINE
  5
33D
330
1F
100
AcDbEntity
  8
101
  6
Continuous
 62
     7
370
    30
100
AcDbLine
 10
125.5543476366419
 20
30.60303959843847
 30
0.0
 11
130.8384385457328
 21
32.76213050752938
 31
0.0
  0
LINE
  5
33E
330
1F
100
AcDbEntity
  8
101
  6
Continuous
 62
     7
370
    30
100
AcDbLine
 10
142.9407112730055
 20
40.09167596207479
 30
0.0
 11
145.0429840002782
 21
42.13713050752932
 31
0.0
  0
LINE
  5
33F
330
1F
100
AcDbEntity
  8
101
  6
Continuous
 62
     7
370
    30
100
AcDbLine
 10
145.0429840002782
 20
42.13713050752932
 30
0.0
 11
146.9179840002782
 21
44.63713050752932
 31
0.0
  0
LINE
  5
340
330
1F
100
AcDbEntity
  8
101
  6
Continuous
 62
     7
370
    30
100
AcDbLine
 10
146.9179840002782
 20
44.63713050752932
 30
0.0
 11
147.9407112730054
 21
46.68258505298385
 31
0.0
  0
LINE
  5
341
330
1F
100
AcDbEntity
  8
101
  6
Continuous
 62
     7
370
    30
100
AcDbLine
 10
148.6225294548236
 20
53.89849414389289
 30
0.0
 11
150.0181260457329
 21
66.8388350529838
 31
0.0
  0
LINE
  5
342
330
1F
100
AcDbEntity
  8
101
  6
Continuous
 62
     7
370
    30
100
AcDbLine
 10
125.1176035564489
 20
49.95036640707221
 30
0.0
 11
128.8845670128508
 21
46.98611192466143
 31
0.0
  0
LINE
  5
343
330
1F
100
AcDbEntity
  8
101
  6
Continuous
 62
     7
370
    30
100
AcDbLine
 10
128.8845670128508
 20
46.98611192466143
 30
0.0
 11
133.2497355521767
 21
45.68835911567266
 31
0.0
  0
LINE
  5
344
330
1F
100
AcDbEntity
  8
101
  6
Continuous
 62
     7
370
    30
100
AcDbLine
 10
133.2497355521767
 20
45.68835911567266
 30
0.0
 11
140.269398473525
 21
46.45521304825692
 31
0.0
  0
LINE
  5
345
330
1F
100
AcDbEntity
  8
101
  6
Continuous
 62
     7
370
    30
100
AcDbLine
 10
140.269398473525
 20
46.45521304825692
 30
0.0
 11
149.2356906083564
 21
48.75577484600973
 31
0.0
  0
LINE
  5
346
330
1F
100
AcDbEntity
  8
101
  6
Continuous
 62
     7
370
    30
100
AcDbLine
 10
149.2356906083564
 20
48.75577484600973
 30
0.0
 11
159.6767018443115
 21
51.88217934039176
 31
0.0
  0
LINE
  5
347
330
1F
100
AcDbEntity
  8
101
  6
Continuous
 62
     7
370
    30
100
AcDbLine
 10
159.6767018443115
 20
51.88217934039176
 30
0.0
 11
169.4098479117272
 21
54.53667372241424
 31
0.0
  0
LINE
  5
348
330
1F
100
AcDbEntity
  8
101
  6
Continuous
 62
     7
370
    30
100
AcDbLine
 10
169.4098479117272
 20
54.53667372241424
 30
0.0
 11
183.272207462289
 21
59.6097074302794
 31
0.0
  0
LINE
  5
349
330
1F
100
AcDbEntity
  8
101
  6
Continuous
 62
     7
370
    30
100
AcDbLine
 10
183.272207462289
 20
59.6097074302794
 30
0.0
 11
189.0531063386935
 21
61.14341529544794
 31
0.0
  0
LINE
  5
34A
330
1F
100
AcDbEntity
  8
101
  6
Continuous
 62
     7
370
    30
100
AcDbLine
 10
189.0531063386935
 20
61.14341529544794
 30
0.0
 11
193.3002973499295
 21
61.55633664376253
 31
0.0
  0
LINE
  5
34B
330
1F
100
AcDbEntity
  8
101
  6
Continuous
 62
     7
370
    30
100
AcDbLine
 10
193.3002973499295
 20
61.55633664376253
 30
0.0
 11
199.0811962263339
 21
61.37937035162773
 31
0.0
  0
LINE
  5
34C
330
1F
100
AcDbEntity
  8
101
  6
Continuous
 62
     7
370
    30
100
AcDbLine
 10
199.0811962263339
 20
61.37937035162773
 30
0.0
 11
204.1542299341991
 21
60.19959507072886
 31
0.0
  0
LINE
  5
34D
330
1F
100
AcDbEntity
  8
101
  6
Continuous
 62
     7
370
    30
100
AcDbLine
 10
204.1542299341991
 20
60.19959507072886
 30
0.0
 11
207.8705220690306
 21
58.66588720556032
 31
0.0
  0
LINE
  5
34E
330
1F
100
AcDbEntity
  8
101
  6
Continuous
 62
     7
370
    30
100
AcDbLine
 10
207.8705220690306
 20
58.66588720556032
 30
0.0
 11
210.7609715072329
 21
56.12937035162773
 31
0.0
  0
LINE
  5
34F
330
1F
100
AcDbEntity
  8
101
  6
Continuous
 62
     7
370
    30
100
AcDbLine
 10
210.7609715072329
 20
56.12937035162773
 30
0.0
 11
211.8817580240867
 21
54.65465125050412
 31
0.0
  0
LINE
  5
350
330
1F
100
AcDbEntity
  8
101
  6
Continuous
 62
     7
370
    30
100
AcDbLine
 10
212.4716456645362
 20
56.36532540780749
 30
0.0
 11
210.1120951027384
 21
58.72487596960525
 31
0.0
  0
LINE
  5
351
330
1F
100
AcDbEntity
  8
101
  6
Continuous
 62
     7
370
    30
100
AcDbLine
 10
210.1120951027384
 20
58.72487596960525
 30
0.0
 11
206.8677130802665
 21
60.5535276549985
 31
0.0
  0
LINE
  5
352
330
1F
100
AcDbEntity
  8
101
  6
Continuous
 62
     7
370
    30
100
AcDbLine
 10
206.8677130802665
 20
60.5535276549985
 30
0.0
 11
200.6738928555474
 21
62.38217934039176
 31
0.0
  0
LINE
  5
353
330
1F
100
AcDbEntity
  8
101
  6
Continuous
 62
     7
370
    30
100
AcDbLine
 10
200.6738928555474
 20
62.38217934039176
 30
0.0
 11
193.9491737544238
 21
62.91307821679626
 31
0.0
  0
LINE
  5
354
330
1F
100
AcDbEntity
  8
101
  6
Continuous
 62
     7
370
    30
100
AcDbLine
 10
193.9491737544238
 20
62.91307821679626
 30
0.0
 11
186.1626569004912
 21
61.85128046398728
 31
0.0
  0
LINE
  5
355
330
1F
100
AcDbEntity
  8
101
  6
Continuous
 62
     7
370
    30
100
AcDbLine
 10
186.1626569004912
 20
61.85128046398728
 30
0.0
 11
174.3649040915025
 21
57.60408945275131
 31
0.0
  0
LINE
  5
356
330
1F
100
AcDbEntity
  8
101
  6
Continuous
 62
     7
370
    30
100
AcDbLine
 10
174.3649040915025
 20
57.60408945275131
 30
0.0
 11
167.522207462289
 21
55.36251641904346
 31
0.0
  0
LINE
  5
357
330
1F
100
AcDbEntity
  8
101
  6
Continuous
 62
     7
370
    30
100
AcDbLine
 10
167.522207462289
 20
55.36251641904346
 30
0.0
 11
157.022207462289
 21
52.35408945275131
 31
0.0
  0
LINE
  5
358
330
1F
100
AcDbEntity
  8
101
  6
Continuous
 62
     7
370
    30
100
AcDbLine
 10
157.022207462289
 20
52.35408945275131
 30
0.0
 11
147.4660276870081
 21
49.93555012690862
 31
0.0
  0
LINE
  5
359
330
1F
100
AcDbEntity
  8
101
  6
Continuous
 62
     7
370
    30
100
AcDbLine
 10
147.4660276870081
 20
49.93555012690862
 30
0.0
 11
140.3283872375699
 21
48.04790967747044
 31
0.0
  0
LINE
  5
35A
330
1F
100
AcDbEntity
  8
101
  6
Continuous
 62
     7
370
    30
100
AcDbLine
 10
140.3283872375699
 20
48.04790967747044
 30
0.0
 11
134.6654658892554
 21
47.3400445089311
 31
0.0
  0
LINE
  5
35B
330
1F
100
AcDbEntity
  8
101
  6
Continuous
 62
     7
370
    30
100
AcDbLine
 10
134.6654658892554
 20
47.3400445089311
 30
0.0
 11
129.9463647656598
 21
48.04790967747044
 31
0.0
  0
LINE
  5
35C
330
1F
100
AcDbEntity
  8
101
  6
Continuous
 62
     7
370
    30
100
AcDbLine
 10
129.9463647656598
 20
48.04790967747044
 30
0.0
 11
127.8227692600418
 21
48.87375237409964
 31
0.0
  0
LINE
  5
35D
330
1F
100
AcDbEntity
  8
101
  6
Continuous
 62
     7
370
    30
100
AcDbLine
 10
127.8227692600418
 20
48.87375237409964
 30
0.0
 11
126.2260253437079
 21
50.3733168258947
 31
0.0
  0
LINE
  5
35E
330
1F
100
AcDbEntity
  8
101
  6
Continuous
 62
     7
370
    30
100
AcDbLine
 10
128.4577743456827
 20
51.22490526085878
 30
0.0
 11
131.0671512825137
 21
49.69959507072886
 31
0.0
  0
LINE
  5
35F
330
1F
100
AcDbEntity
  8
101
  6
Continuous
 62
     7
370
    30
100
AcDbLine
 10
131.0671512825137
 20
49.69959507072886
 30
0.0
 11
134.7244546533003
 21
49.69959507072886
 31
0.0
  0
LINE
  5
360
330
1F
100
AcDbEntity
  8
101
  6
Continuous
 62
     7
370
    30
100
AcDbLine
 10
134.7244546533003
 20
49.69959507072886
 30
0.0
 11
141.331196226334
 21
50.46644900331313
 31
0.0
  0
LINE
  5
361
330
1F
100
AcDbEntity
  8
101
  6
Continuous
 62
     7
370
    30
100
AcDbLine
 10
141.331196226334
 20
50.46644900331313
 30
0.0
 11
158.2019827431879
 21
55.1265613628637
 31
0.0
  0
LINE
  5
362
330
1F
100
AcDbEntity
  8
101
  6
Continuous
 62
     7
370
    30
100
AcDbLine
 10
158.2019827431879
 20
55.1265613628637
 30
0.0
 11
172.6542299341991
 21
59.1967860819648
 31
0.0
  0
LINE
  5
363
330
1F
100
AcDbEntity
  8
101
  6
Continuous
 62
     7
370
    30
100
AcDbLine
 10
172.6542299341991
 20
59.1967860819648
 30
0.0
 11
178.6710838667834
 21
61.43835911567265
 31
0.0
  0
LINE
  5
364
330
1F
100
AcDbEntity
  8
101
  6
Continuous
 62
     7
370
    30
100
AcDbLine
 10
178.6710838667834
 20
61.43835911567265
 30
0.0
 11
183.5081625184688
 21
63.14903327297603
 31
0.0
  0
LINE
  5
365
330
1F
100
AcDbEntity
  8
101
  6
Continuous
 62
     7
370
    30
100
AcDbLine
 10
183.5081625184688
 20
63.14903327297603
 30
0.0
 11
188.6991737544238
 21
64.32880855387492
 31
0.0
  0
LINE
  5
366
330
1F
100
AcDbEntity
  8
101
  6
Continuous
 62
     7
370
    30
100
AcDbLine
 10
188.6991737544238
 20
64.32880855387492
 30
0.0
 11
194.3031063386935
 21
64.85970743027939
 31
0.0
  0
LINE
  5
367
330
1F
100
AcDbEntity
  8
101
  6
Continuous
 62
     7
370
    30
100
AcDbLine
 10
194.3031063386935
 20
64.85970743027939
 30
0.0
 11
200.025016451053
 21
64.56476361005465
 31
0.0
  0
LINE
  5
368
330
1F
100
AcDbEntity
  8
101
  6
Continuous
 62
     7
370
    30
100
AcDbLine
 10
200.025016451053
 20
64.56476361005465
 30
0.0
 11
205.4519827431878
 21
63.26701080106591
 31
0.0
  0
LINE
  5
369
330
1F
100
AcDbEntity
  8
101
  6
Continuous
 62
     7
370
    30
100
AcDbLine
 10
205.4519827431878
 20
63.26701080106591
 30
0.0
 11
210.0531063386935
 21
61.26139282353782
 31
0.0
  0
LINE
  5
36A
330
1F
100
AcDbEntity
  8
101
  6
Continuous
 62
     7
370
    30
100
AcDbLine
 10
210.0531063386935
 20
61.26139282353782
 30
0.0
 11
212.3536681364463
 21
59.43274113814456
 31
0.0
  0
LINE
  5
36B
330
1F
100
AcDbEntity
  8
101
  6
Continuous
 62
     7
370
    30
100
AcDbLine
 10
212.3536681364463
 20
59.43274113814456
 30
0.0
 11
213.651420945435
 21
57.72206698084119
 31
0.0
  0
LINE
  5
36C
330
1F
100
AcDbEntity
  8
101
  6
Continuous
 62
     7
370
    30
100
AcDbLine
 10
213.651420945435
 20
57.72206698084119
 30
0.0
 11
214.4182748780193
 21
54.06476361005465
 31
0.0
  0
LINE
  5
36D
330
1F
100
AcDbEntity
  8
101
  6
Continuous
 62
     7
370
    30
100
AcDbLine
 10
214.4182748780193
 20
54.06476361005465
 30
0.0
 11
213.5334434173452
 21
50.34847147522319
 31
0.0
  0
LINE
  5
36E
330
1F
100
AcDbEntity
  8
101
  6
Continuous
 62
     7
370
    30
100
AcDbLine
 10
213.5334434173452
 20
50.34847147522319
 30
0.0
 11
211.7637804959969
 21
47.63498832915579
 31
0.0
  0
LINE
  5
36F
330
1F
100
AcDbEntity
  8
101
  6
Continuous
 62
     7
370
    30
100
AcDbLine
 10
211.7637804959969
 20
47.63498832915579
 30
0.0
 11
205.3929939791429
 21
43.15184226174006
 31
0.0
  0
LINE
  5
370
330
1F
100
AcDbEntity
  8
101
  6
Continuous
 62
     7
370
    30
100
AcDbLine
 10
205.3929939791429
 20
43.15184226174006
 30
0.0
 11
185.6907467881317
 21
32.29790967747041
 31
0.0
  0
LINE
  5
371
330
1F
100
AcDbEntity
  8
101
  6
Continuous
 62
     7
370
    30
100
AcDbLine
 10
183.6261400465586
 20
36.07319057634681
 30
0.0
 11
192.5924321813901
 21
41.32319057634681
 31
0.0
  0
LINE
  5
372
330
1F
100
AcDbEntity
  8
101
  6
Continuous
 62
     7
370
    30
100
AcDbLine
 10
192.5924321813901
 20
41.32319057634681
 30
0.0
 11
200.2019827431878
 21
45.27543776735805
 31
0.0
  0
LINE
  5
373
330
1F
100
AcDbEntity
  8
101
  6
Continuous
 62
     7
370
    30
100
AcDbLine
 10
200.2019827431878
 20
45.27543776735805
 30
0.0
 11
206.7497355521766
 21
48.81476361005465
 31
0.0
  0
LINE
  5
374
330
1F
100
AcDbEntity
  8
101
  6
Continuous
 62
     7
370
    30
100
AcDbLine
 10
206.7497355521766
 20
48.81476361005465
 30
0.0
 11
209.522207462289
 21
50.70240405949286
 31
0.0
  0
LINE
  5
375
330
1F
100
AcDbEntity
  8
101
  6
Continuous
 62
     7
370
    30
100
AcDbLine
 10
209.522207462289
 20
50.70240405949286
 30
0.0
 11
210.9969265634126
 21
52.47206698084119
 31
0.0
  0
LINE
  5
376
330
1F
100
AcDbEntity
  8
101
  6
Continuous
 62
     7
370
    30
100
AcDbLine
 10
210.9969265634126
 20
52.47206698084119
 30
0.0
 11
211.8817580240867
 21
54.65465125050412
 31
0.0
  0
LINE
  5
377
330
1F
100
AcDbEntity
  8
101
  6
Continuous
 62
     7
370
    30
100
AcDbLine
 10
211.8817580240867
 20
54.65465125050412
 30
0.0
 11
212.4716456645362
 21
56.36532540780749
 31
0.0
  0
LINE
  5
378
330
1F
100
AcDbEntity
  8
101
  6
Continuous
 62
     7
370
    30
100
AcDbLine
 10
212.4716456645362
 20
56.36532540780749
 30
0.0
 11
212.4126569004912
 21
57.95802203702095
 31
0.0
  0
LINE
  5
379
330
1F
100
AcDbEntity
  8
101
  6
Continuous
 62
     7
370
    30
100
AcDbLine
 10
214.0075054803244
 20
52.33953213973592
 30
0.0
 11
210.8199602712778
 21
48.87375237409961
 31
0.0
  0
LINE
  5
37A
330
1F
100
AcDbEntity
  8
101
  6
Continuous
 62
     7
370
    30
100
AcDbLine
 10
210.8199602712778
 20
48.87375237409961
 30
0.0
 11
204.5671512825137
 21
44.80352765499848
 31
0.0
  0
LINE
  5
37B
330
1F
100
AcDbEntity
  8
101
  6
Continuous
 62
     7
370
    30
100
AcDbLine
 10
204.5671512825137
 20
44.80352765499848
 30
0.0
 11
191.7665894847609
 21
38.31476361005466
 31
0.0
  0
LINE
  5
37C
330
1F
100
AcDbEntity
  8
101
  6
Continuous
 62
     7
370
    30
100
AcDbLine
 10
191.7665894847609
 20
38.31476361005466
 30
0.0
 11
184.4519827431878
 21
34.24453889095354
 31
0.0
  0
LINE
  5
37D
330
1F
100
AcDbEntity
  8
101
  6
Continuous
 62
     7
370
    30
100
AcDbLine
 10
181.7974883611654
 20
38.31476361005466
 30
0.0
 11
183.6261400465586
 21
36.07319057634681
 31
0.0
  0
LINE
  5
37E
330
1F
100
AcDbEntity
  8
101
  6
Continuous
 62
     7
370
    30
100
AcDbLine
 10
183.6261400465586
 20
36.07319057634681
 30
0.0
 11
184.4519827431878
 21
34.24453889095354
 31
0.0
  0
LINE
  5
37F
330
1F
100
AcDbEntity
  8
101
  6
Continuous
 62
     7
370
    30
100
AcDbLine
 10
184.4519827431878
 20
34.24453889095354
 30
0.0
 11
185.6907467881317
 21
32.29790967747041
 31
0.0
  0
LINE
  5
380
330
1F
100
AcDbEntity
  8
101
  6
Continuous
 62
     7
370
    30
100
AcDbLine
 10
185.6907467881317
 20
32.29790967747041
 30
0.0
 11
186.1036681364462
 21
29.99734787971758
 31
0.0
  0
LINE
  5
381
330
1F
100
AcDbEntity
  8
101
  6
Continuous
 62
     7
370
    30
100
AcDbLine
 10
186.1036681364462
 20
29.99734787971758
 30
0.0
 11
185.336814203862
 21
27.69678608196477
 31
0.0
  0
LINE
  5
382
330
1F
100
AcDbEntity
  8
101
  6
Continuous
 62
     7
370
    30
100
AcDbLine
 10
185.336814203862
 20
27.69678608196477
 30
0.0
 11
184.216027687008
 21
25.80914563252657
 31
0.0
  0
LINE
  5
383
330
1F
100
AcDbEntity
  8
101
  6
Continuous
 62
     7
370
    30
100
AcDbLine
 10
184.216027687008
 20
25.80914563252657
 30
0.0
 11
175.0727692600418
 21
19.96925799207713
 31
0.0
  0
LINE
  5
384
330
1F
100
AcDbEntity
  8
101
  6
Continuous
 62
     7
370
    30
100
AcDbLine
 10
175.0727692600418
 20
19.96925799207713
 30
0.0
 11
166.5783872375699
 21
16.07599956511083
 31
0.0
  0
LINE
  5
385
330
1F
100
AcDbEntity
  8
101
  6
Continuous
 62
     7
370
    30
100
AcDbLine
 10
166.5783872375699
 20
16.07599956511083
 30
0.0
 11
157.5531063386935
 21
13.06757259881871
 31
0.0
  0
LINE
  5
386
330
1F
100
AcDbEntity
  8
101
  6
Continuous
 62
     7
370
    30
100
AcDbLine
 10
157.5531063386935
 20
13.06757259881871
 30
0.0
 11
143.1008591476822
 21
11.82880855387489
 31
0.0
  0
LINE
  5
387
330
1F
100
AcDbEntity
  8
101
  6
Continuous
 62
     7
370
    30
100
AcDbLine
 10
143.1008591476822
 20
11.82880855387489
 30
0.0
 11
141.3901849903789
 21
14.89622428421197
 31
0.0
  0
LINE
  5
388
330
1F
100
AcDbEntity
  8
101
  6
Continuous
 62
     7
370
    30
100
AcDbLine
 10
141.3901849903789
 20
14.89622428421197
 30
0.0
 11
140.7413085858844
 21
19.14341529544791
 31
0.0
  0
LINE
  5
389
330
1F
100
AcDbEntity
  8
101
  6
Continuous
 62
     7
370
    30
100
AcDbLine
 10
140.7413085858844
 20
19.14341529544791
 30
0.0
 11
140.8002973499295
 21
23.21364001454904
 31
0.0
  0
LINE
  5
38A
330
1F
100
AcDbEntity
  8
101
  6
Continuous
 62
     7
370
    30
100
AcDbLine
 10
140.8002973499295
 20
23.21364001454904
 30
0.0
 11
141.5081625184687
 21
24.74734787971758
 31
0.0
  0
LINE
  5
38B
330
1F
100
AcDbEntity
  8
101
  6
Continuous
 62
     7
370
    30
100
AcDbLine
 10
141.5081625184687
 20
24.74734787971758
 30
0.0
 11
148.2328816195923
 21
29.05352765499849
 31
0.0
  0
LINE
  5
38C
330
1F
100
AcDbEntity
  8
101
  6
Continuous
 62
     7
370
    30
100
AcDbLine
 10
148.2328816195923
 20
29.05352765499849
 30
0.0
 11
154.7216456645361
 21
32.41588720556029
 31
0.0
  0
LINE
  5
38D
330
1F
100
AcDbEntity
  8
101
  6
Continuous
 62
     7
370
    30
100
AcDbLine
 10
154.7216456645361
 20
32.41588720556029
 30
0.0
 11
159.8536681364462
 21
34.7164490033131
 31
0.0
  0
LINE
  5
38E
330
1F
100
AcDbEntity
  8
101
  6
Continuous
 62
     7
370
    30
100
AcDbLine
 10
159.8536681364462
 20
34.7164490033131
 30
0.0
 11
165.8705220690305
 21
36.42712316061647
 31
0.0
  0
LINE
  5
38F
330
1F
100
AcDbEntity
  8
101
  6
Continuous
 62
     7
370
    30
100
AcDbLine
 10
165.8705220690305
 20
36.42712316061647
 30
0.0
 11
171.2974883611653
 21
37.84285349769512
 31
0.0
  0
LINE
  5
390
330
1F
100
AcDbEntity
  8
101
  6
Continuous
 62
     7
370
    30
100
AcDbLine
 10
171.2974883611653
 20
37.84285349769512
 30
0.0
 11
177.6682748780193
 21
38.60970743027939
 31
0.0
  0
LINE
  5
391
330
1F
100
AcDbEntity
  8
101
  6
Continuous
 62
     7
370
    30
100
AcDbLine
 10
177.6682748780193
 20
38.60970743027939
 30
0.0
 11
181.7974883611654
 21
38.31476361005466
 31
0.0
  0
LINE
  5
392
330
1F
100
AcDbEntity
  8
101
  6
Continuous
 62
     7
370
    30
100
AcDbLine
 10
141.104161422278
 20
23.87201217130431
 30
0.0
 11
143.8087243162215
 21
19.02543776735803
 31
0.0
  0
LINE
  5
393
330
1F
100
AcDbEntity
  8
101
  6
Continuous
 62
     7
370
    30
100
AcDbLine
 10
143.8087243162215
 20
19.02543776735803
 30
0.0
 11
145.2834434173451
 21
17.13779731791985
 31
0.0
  0
LINE
  5
394
330
1F
100
AcDbEntity
  8
101
  6
Continuous
 62
     7
370
    30
100
AcDbLine
 10
145.2834434173451
 20
17.13779731791985
 30
0.0
 11
146.463218698244
 21
17.13779731791985
 31
0.0
  0
LINE
  5
395
330
1F
100
AcDbEntity
  8
101
  6
Continuous
 62
     7
370
    30
100
AcDbLine
 10
146.463218698244
 20
17.13779731791985
 30
0.0
 11
156.3733310577945
 21
18.49453889095354
 31
0.0
  0
LINE
  5
396
330
1F
100
AcDbEntity
  8
101
  6
Continuous
 62
     7
370
    30
100
AcDbLine
 10
156.3733310577945
 20
18.49453889095354
 30
0.0
 11
166.8143422937496
 21
21.97487596960522
 31
0.0
  0
LINE
  5
397
330
1F
100
AcDbEntity
  8
101
  6
Continuous
 62
     7
370
    30
100
AcDbLine
 10
166.8143422937496
 20
21.97487596960522
 30
0.0
 11
176.4884995971204
 21
26.51701080106591
 31
0.0
  0
LINE
  5
398
330
1F
100
AcDbEntity
  8
101
  6
Continuous
 62
     7
370
    30
100
AcDbLine
 10
176.4884995971204
 20
26.51701080106591
 30
0.0
 11
183.8031063386935
 21
31.05914563252658
 31
0.0
  0
LINE
  5
399
330
1F
100
AcDbEntity
  8
101
  6
Continuous
 62
     7
370
    30
100
AcDbLine
 10
159.9126569004912
 20
32.50437035162771
 30
0.0
 11
158.2904658892552
 21
31.00015686848164
 31
0.0
  0
LINE
  5
39A
330
1F
100
AcDbEntity
  8
101
  6
Continuous
 62
     7
370
    30
100
AcDbLine
 10
158.2904658892552
 20
31.00015686848164
 30
0.0
 11
157.7595670128507
 21
28.84706698084119
 31
0.0
  0
LINE
  5
39B
330
1F
100
AcDbEntity
  8
101
  6
Continuous
 62
     7
370
    30
100
AcDbLine
 10
157.7595670128507
 20
28.84706698084119
 30
0.0
 11
158.1134995971204
 21
26.87094338533556
 31
0.0
  0
LINE
  5
39C
330
1F
100
AcDbEntity
  8
101
  6
Continuous
 62
     7
370
    30
100
AcDbLine
 10
158.1134995971204
 20
26.87094338533556
 30
0.0
 11
159.4407467881316
 21
25.04229169994231
 31
0.0
  0
LINE
  5
39D
330
1F
100
AcDbEntity
  8
101
  6
Continuous
 62
     7
370
    30
100
AcDbLine
 10
159.4407467881316
 20
25.04229169994231
 30
0.0
 11
161.652825439817
 21
23.36111192466142
 31
0.0
  0
LINE
  5
39E
330
1F
100
AcDbEntity
  8
101
  6
Continuous
 62
     7
370
    30
100
AcDbLine
 10
161.652825439817
 20
23.36111192466142
 30
0.0
 11
164.7202411701541
 21
23.15465125050412
 31
0.0
  0
LINE
  5
39F
330
1F
100
AcDbEntity
  8
101
  6
Continuous
 62
     7
370
    30
100
AcDbLine
 10
164.7202411701541
 20
23.15465125050412
 30
0.0
 11
167.6401849903788
 21
23.98049394713333
 31
0.0
  0
LINE
  5
3A0
330
1F
100
AcDbEntity
  8
101
  6
Continuous
 62
     7
370
    30
100
AcDbLine
 10
167.6401849903788
 20
23.98049394713333
 30
0.0
 11
169.3213647656597
 21
25.69116810443668
 31
0.0
  0
LINE
  5
3A1
330
1F
100
AcDbEntity
  8
101
  6
Continuous
 62
     7
370
    30
100
AcDbLine
 10
169.3213647656597
 20
25.69116810443668
 30
0.0
 11
169.6752973499294
 21
28.16869619432433
 31
0.0
  0
LINE
  5
3A2
330
1F
100
AcDbEntity
  8
101
  6
Continuous
 62
     7
370
    30
100
AcDbLine
 10
169.6752973499294
 20
28.16869619432433
 30
0.0
 11
168.8789490353226
 21
30.58723552016704
 31
0.0
  0
LINE
  5
3A3
330
1F
100
AcDbEntity
  8
101
  6
Continuous
 62
     7
370
    30
100
AcDbLine
 10
168.8789490353226
 20
30.58723552016704
 30
0.0
 11
166.6078816195923
 21
32.47487596960524
 31
0.0
  0
LINE
  5
3A4
330
1F
100
AcDbEntity
  8
101
  6
Continuous
 62
     7
370
    30
100
AcDbLine
 10
166.6078816195923
 20
32.47487596960524
 30
0.0
 11
164.6022636420642
 21
33.21223552016704
 31
0.0
  0
LINE
  5
3A5
330
1F
100
AcDbEntity
  8
101
  6
Continuous
 62
     7
370
    30
100
AcDbLine
 10
164.6022636420642
 20
33.21223552016704
 30
0.0
 11
162.0657467881316
 21
33.21223552016704
 31
0.0
  0
LINE
  5
3A6
330
1F
100
AcDbEntity
  8
101
  6
Continuous
 62
     7
370
    30
100
AcDbLine
 10
162.0657467881316
 20
33.21223552016704
 30
0.0
 11
159.9126569004912
 21
32.50437035162771
 31
0.0
  0
LINE
  5
3A7
330
1F
100
AcDbEntity
  8
101
  6
Continuous
 62
     7
370
    30
100
AcDbLine
 10
164.7792299341991
 20
28.99453889095355
 30
0.0
 11
164.3663085858844
 21
29.73189844151534
 31
0.0
  0
LINE
  5
3A8
330
1F
100
AcDbEntity
  8
101
  6
Continuous
 62
     7
370
    30
100
AcDbLine
 10
164.3663085858844
 20
29.73189844151534
 30
0.0
 11
164.8677130802665
 21
30.55774113814456
 31
0.0
  0
LINE
  5
3A9
330
1F
100
AcDbEntity
  8
101
  6
Continuous
 62
     7
370
    30
100
AcDbLine
 10
164.8677130802665
 20
30.55774113814456
 30
0.0
 11
165.6050726308283
 21
30.6167299021895
 31
0.0
  0
LINE
  5
3AA
330
1F
100
AcDbEntity
  8
101
  6
Continuous
 62
     7
370
    30
100
AcDbLine
 10
165.6050726308283
 20
30.6167299021895
 30
0.0
 11
166.0474883611653
 21
30.20380855387489
 31
0.0
  0
LINE
  5
3AB
330
1F
100
AcDbEntity
  8
101
  6
Continuous
 62
     7
370
    30
100
AcDbLine
 10
166.0474883611653
 20
30.20380855387489
 30
0.0
 11
166.0474883611653
 21
29.28948271117827
 31
0.0
  0
LINE
  5
3AC
330
1F
100
AcDbEntity
  8
101
  6
Continuous
 62
     7
370
    30
100
AcDbLine
 10
166.0474883611653
 20
29.28948271117827
 30
0.0
 11
165.2511400465586
 21
28.87656136286367
 31
0.0
  0
LINE
  5
3AD
330
1F
100
AcDbEntity
  8
101
  6
Continuous
 62
     7
370
    30
100
AcDbLine
 10
165.2511400465586
 20
28.87656136286367
 30
0.0
 11
164.7792299341991
 21
28.99453889095355
 31
0.0
  0
LINE
  5
3AE
330
1F
100
AcDbEntity
  8
101
  6
Continuous
 62
     7
370
    30
100
AcDbLine
 10
162.3901849903788
 20
31.64903327297602
 30
0.0
 11
163.3340052150979
 21
30.14481978982994
 31
0.0
  0
LINE
  5
3AF
330
1F
100
AcDbEntity
  8
101
  6
Continuous
 62
     7
370
    30
100
AcDbLine
 10
163.3340052150979
 20
30.14481978982994
 30
0.0
 11
164.3073198218395
 21
28.58161754263895
 31
0.0
  0
LINE
  5
3B0
330
1F
100
AcDbEntity
  8
101
  6
Continuous
 62
     7
370
    30
100
AcDbLine
 10
164.3073198218395
 20
28.58161754263895
 30
0.0
 11
166.2244546533001
 21
25.39622428421197
 31
0.0
  0
LINE
  5
3B1
330
1F
100
AcDbEntity
  8
101
  6
Continuous
 62
     7
370
    30
100
AcDbLine
 10
166.2244546533001
 20
25.39622428421197
 30
0.0
 11
166.902825439817
 21
26.1040894527513
 31
0.0
  0
LINE
  5
3B2
330
1F
100
AcDbEntity
  8
101
  6
Continuous
 62
     7
370
    30
100
AcDbLine
 10
166.902825439817
 20
26.1040894527513
 30
0.0
 11
167.2862524061092
 21
27.43133664376253
 31
0.0
  0
LINE
  5
3B3
330
1F
100
AcDbEntity
  8
101
  6
Continuous
 62
     7
370
    30
100
AcDbLine
 10
167.2862524061092
 20
27.43133664376253
 30
0.0
 11
167.2272636420642
 21
28.90605574488613
 31
0.0
  0
LINE
  5
3B4
330
1F
100
AcDbEntity
  8
101
  6
Continuous
 62
     7
370
    30
100
AcDbLine
 10
167.2272636420642
 20
28.90605574488613
 30
0.0
 11
166.6078816195923
 21
30.55774113814456
 31
0.0
  0
LINE
  5
3B5
330
1F
100
AcDbEntity
  8
101
  6
Continuous
 62
     7
370
    30
100
AcDbLine
 10
166.6078816195923
 20
30.55774113814456
 30
0.0
 11
165.5755782488058
 21
31.70802203702096
 31
0.0
  0
LINE
  5
3B6
330
1F
100
AcDbEntity
  8
101
  6
Continuous
 62
     7
370
    30
100
AcDbLine
 10
165.5755782488058
 20
31.70802203702096
 30
0.0
 11
164.336814203862
 21
32.2979096774704
 31
0.0
  0
LINE
  5
3B7
330
1F
100
AcDbEntity
  8
101
  6
Continuous
 62
     7
370
    30
100
AcDbLine
 10
164.336814203862
 20
32.2979096774704
 30
0.0
 11
163.0685557768957
 21
32.41588720556029
 31
0.0
  0
LINE
  5
3B8
330
1F
100
AcDbEntity
  8
101
  6
Continuous
 62
     7
370
    30
100
AcDbLine
 10
163.0685557768957
 20
32.41588720556029
 30
0.0
 11
162.4491737544238
 21
32.26841529544793
 31
0.0
  0
LINE
  5
3B9
330
1F
100
AcDbEntity
  8
101
  6
Continuous
 62
     7
370
    30
100
AcDbLine
 10
162.4491737544238
 20
32.26841529544793
 30
0.0
 11
162.3901849903788
 21
31.64903327297602
 31
0.0
  0
LINE
  5
3BA
330
1F
100
AcDbEntity
  8
101
  6
Continuous
 62
     7
370
    30
100
AcDbLine
 10
155.9899040915024
 20
31.79650518308838
 30
0.0
 11
154.8101288106035
 21
30.43976361005467
 31
0.0
  0
LINE
  5
3BB
330
1F
100
AcDbEntity
  8
101
  6
Continuous
 62
     7
370
    30
100
AcDbLine
 10
154.8101288106035
 20
30.43976361005467
 30
0.0
 11
154.4561962263339
 21
28.08021304825692
 31
0.0
  0
LINE
  5
3BC
330
1F
100
AcDbEntity
  8
101
  6
Continuous
 62
     7
370
    30
100
AcDbLine
 10
154.4561962263339
 20
28.08021304825692
 30
0.0
 11
155.7539490353226
 21
25.13077484600973
 31
0.0
  0
LINE
  5
3BD
330
1F
100
AcDbEntity
  8
101
  6
Continuous
 62
     7
370
    30
100
AcDbLine
 10
155.7539490353226
 20
25.13077484600973
 30
0.0
 11
158.58540970948
 21
22.53526922803221
 31
0.0
  0
LINE
  5
3BE
330
1F
100
AcDbEntity
  8
101
  6
Continuous
 62
     7
370
    30
100
AcDbLine
 10
158.58540970948
 20
22.53526922803221
 30
0.0
 11
163.5994546533002
 21
21.94538158758276
 31
0.0
  0
LINE
  5
3BF
330
1F
100
AcDbEntity
  8
101
  6
Continuous
 62
     7
370
    30
100
AcDbLine
 10
163.5994546533002
 20
21.94538158758276
 30
0.0
 11
172.6247355521766
 21
26.01560630668388
 31
0.0
  0
LINE
  5
3C0
330
1F
100
AcDbEntity
  8
101
  6
Continuous
 62
     7
370
    30
100
AcDbLine
 10
172.6247355521766
 20
26.01560630668388
 30
0.0
 11
173.5685557768957
 21
29.02403327297603
 31
0.0
  0
LINE
  5
3C1
330
1F
100
AcDbEntity
  8
101
  6
Continuous
 62
     7
370
    30
100
AcDbLine
 10
173.5685557768957
 20
29.02403327297603
 30
0.0
 11
172.4477692600418
 21
32.79931417185242
 31
0.0
  0
LINE
  5
3C2
330
1F
100
AcDbEntity
  8
101
  6
Continuous
 62
     7
370
    30
100
AcDbLine
 10
172.4477692600418
 20
32.79931417185242
 30
0.0
 11
170.0292299341991
 21
34.80493214938051
 31
0.0
  0
LINE
  5
3C3
330
1F
100
AcDbEntity
  8
101
  6
Continuous
 62
     7
370
    30
100
AcDbLine
 10
170.0292299341991
 20
34.80493214938051
 30
0.0
 11
167.7876569004912
 21
35.92571866623445
 31
0.0
  0
LINE
  5
3C4
330
1F
100
AcDbEntity
  8
101
  6
Continuous
 62
     7
370
    30
100
AcDbLine
 10
167.7876569004912
 20
35.92571866623445
 30
0.0
 11
164.4252973499294
 21
35.45380855387489
 31
0.0
  0
LINE
  5
3C5
330
1F
100
AcDbEntity
  8
101
  6
Continuous
 62
     7
370
    30
100
AcDbLine
 10
164.4252973499294
 20
35.45380855387489
 30
0.0
 11
155.9899040915024
 21
31.79650518308838
 31
0.0
  0
LINE
  5
3C6
330
1F
100
AcDbEntity
  8
101
  6
Continuous
 62
     7
370
    30
100
AcDbLine
 10
162.4207065097327
 20
34.58468525253086
 30
0.0
 11
166.2539490353226
 21
34.45099956511085
 31
0.0
  0
LINE
  5
3C7
330
1F
100
AcDbEntity
  8
101
  6
Continuous
 62
     7
370
    30
100
AcDbLine
 10
166.2539490353226
 20
34.45099956511085
 30
0.0
 11
169.7342861139743
 21
32.97628046398726
 31
0.0
  0
LINE
  5
3C8
330
1F
100
AcDbEntity
  8
101
  6
Continuous
 62
     7
370
    30
100
AcDbLine
 10
169.7342861139743
 20
32.97628046398726
 30
0.0
 11
171.2679939791429
 21
30.91167372241422
 31
0.0
  0
LINE
  5
3C9
330
1F
100
AcDbEntity
  8
101
  6
Continuous
 62
     7
370
    30
100
AcDbLine
 10
171.2679939791429
 20
30.91167372241422
 30
0.0
 11
171.5629377993676
 21
28.96504450893107
 31
0.0
  0
LINE
  5
3CA
330
1F
100
AcDbEntity
  8
101
  6
Continuous
 62
     7
370
    30
100
AcDbLine
 10
171.5629377993676
 20
28.96504450893107
 30
0.0
 11
170.8081454670992
 21
25.19635979772742
 31
0.0
  0
LINE
  5
3CB
330
1F
100
AcDbEntity
  8
101
  6
Continuous
 62
     7
370
    30
100
AcDbLine
 10
140.7503142203785
 20
19.76480407553748
 30
0.0
 11
134.8129377993676
 21
18.64201080106591
 31
0.0
  0
LINE
  5
3CC
330
1F
100
AcDbEntity
  8
101
  6
Continuous
 62
     7
370
    30
100
AcDbLine
 10
134.8129377993676
 20
18.64201080106591
 30
0.0
 11
128.029229934199
 21
17.81616810443668
 31
0.0
  0
LINE
  5
3CD
330
1F
100
AcDbEntity
  8
101
  6
Continuous
 62
     7
370
    30
100
AcDbLine
 10
128.029229934199
 20
17.81616810443668
 30
0.0
 11
123.6050726308283
 21
18.75998832915579
 31
0.0
  0
LINE
  5
3CE
330
1F
100
AcDbEntity
  8
101
  6
Continuous
 62
     7
370
    30
100
AcDbLine
 10
123.6050726308283
 20
18.75998832915579
 30
0.0
 11
119.8297917319519
 21
20.76560630668388
 31
0.0
  0
LINE
  5
3CF
330
1F
100
AcDbEntity
  8
101
  6
Continuous
 62
     7
370
    30
100
AcDbLine
 10
119.8297917319519
 20
20.76560630668388
 30
0.0
 11
114.0488928555474
 21
25.13077484600973
 31
0.0
  0
LINE
  5
3D0
330
1F
100
AcDbEntity
  8
101
  6
Continuous
 62
     7
370
    30
100
AcDbLine
 10
114.0488928555474
 20
25.13077484600973
 30
0.0
 11
107.3241737544237
 21
31.147628778594
 31
0.0
  0
LINE
  5
3D1
330
1F
100
AcDbEntity
  8
101
  6
Continuous
 62
     7
370
    30
100
AcDbLine
 10
107.3241737544237
 20
31.147628778594
 30
0.0
 11
101.7202411701541
 21
36.33864001454906
 31
0.0
  0
LINE
  5
3D2
330
1F
100
AcDbEntity
  8
101
  6
Continuous
 62
     7
370
    30
100
AcDbLine
 10
101.7202411701541
 20
36.33864001454906
 30
0.0
 11
100.8354097094799
 21
37.9903254078075
 31
0.0
  0
LINE
  5
3D3
330
1F
100
AcDbEntity
  8
101
  6
Continuous
 62
     7
370
    30
100
AcDbLine
 10
100.8354097094799
 20
37.9903254078075
 30
0.0
 11
100.4814771252103
 21
39.40605574488614
 31
0.0
  0
LINE
  5
3D4
330
1F
100
AcDbEntity
  8
101
  6
Continuous
 62
     7
370
    30
100
AcDbLine
 10
100.4814771252103
 20
39.40605574488614
 30
0.0
 11
102.6640613948732
 21
40.2908872055603
 31
0.0
  0
LINE
  5
3D5
330
1F
100
AcDbEntity
  8
101
  6
Continuous
 62
     7
370
    30
100
AcDbLine
 10
102.6640613948732
 20
40.2908872055603
 30
0.0
 11
114.8157467881316
 21
39.87796585724569
 31
0.0
  0
LINE
  5
3D6
330
1F
100
AcDbEntity
  8
101
  6
Continuous
 62
     7
370
    30
100
AcDbLine
 10
114.8157467881316
 20
39.87796585724569
 30
0.0
 11
121.9533872375699
 21
39.05212316061648
 31
0.0
  0
LINE
  5
3D7
330
1F
100
AcDbEntity
  8
101
  6
Continuous
 62
     7
370
    30
100
AcDbLine
 10
100.8354097094799
 20
37.9903254078075
 30
0.0
 11
102.900016451053
 21
38.40324675612209
 31
0.0
  0
LINE
  5
3D8
330
1F
100
AcDbEntity
  8
101
  6
Continuous
 62
     7
370
    30
100
AcDbLine
 10
102.900016451053
 20
38.40324675612209
 30
0.0
 11
106.3803535297047
 21
38.52122428421197
 31
0.0
  0
LINE
  5
3D9
330
1F
100
AcDbEntity
  8
101
  6
Continuous
 62
     7
370
    30
100
AcDbLine
 10
106.3803535297047
 20
38.52122428421197
 30
0.0
 11
111.33540970948
 21
38.34425799207715
 31
0.0
  0
LINE
  5
3DA
330
1F
100
AcDbEntity
  8
101
  6
Continuous
 62
     7
370
    30
100
AcDbLine
 10
101.7202411701541
 20
36.33864001454906
 30
0.0
 11
107.0292299341991
 21
37.75437035162771
 31
0.0
  0
LINE
  5
3DB
330
1F
100
AcDbEntity
  8
101
  6
Continuous
 62
     7
370
    30
100
AcDbLine
 10
107.0292299341991
 20
37.75437035162771
 30
0.0
 11
111.33540970948
 21
38.34425799207715
 31
0.0
  0
LINE
  5
3DC
330
1F
100
AcDbEntity
  8
101
  6
Continuous
 62
     7
370
    30
100
AcDbLine
 10
111.33540970948
 20
38.34425799207715
 30
0.0
 11
121.9533872375699
 21
39.05212316061648
 31
0.0
  0
LINE
  5
3DD
330
1F
100
AcDbEntity
  8
101
  6
Continuous
 62
     7
370
    30
100
AcDbLine
 10
121.9533872375699
 20
39.05212316061648
 30
0.0
 11
129.6219265634126
 21
38.87515686848165
 31
0.0
  0
LINE
  5
3DE
330
1F
100
AcDbEntity
  8
101
  6
Continuous
 62
     7
370
    30
100
AcDbLine
 10
129.6219265634126
 20
38.87515686848165
 30
0.0
 11
137.9983310577946
 21
38.52122428421197
 31
0.0
  0
LINE
  5
3DF
330
1F
100
AcDbEntity
  8
101
  6
Continuous
 62
     7
370
    30
100
AcDbLine
 10
137.9983310577946
 20
38.52122428421197
 30
0.0
 11
150.2679939791429
 21
38.40324675612209
 31
0.0
  0
LINE
  5
3E0
330
1F
100
AcDbEntity
  8
101
  6
Continuous
 62
     7
370
    30
100
AcDbLine
 10
135.6330334718562
 20
38.62116643573051
 30
0.0
 11
126.5545108330755
 21
40.76279731791985
 31
0.0
  0
LINE
  5
3E1
330
1F
100
AcDbEntity
  8
101
  6
Continuous
 62
     7
370
    30
100
AcDbLine
 10
126.5545108330755
 20
40.76279731791985
 30
0.0
 11
117.8831625184687
 21
42.17852765499851
 31
0.0
  0
LINE
  5
3E2
330
1F
100
AcDbEntity
  8
101
  6
Continuous
 62
     7
370
    30
100
AcDbLine
 10
117.8831625184687
 20
42.17852765499851
 30
0.0
 11
109.211814203862
 21
42.59144900331311
 31
0.0
  0
LINE
  5
3E3
330
1F
100
AcDbEntity
  8
101
  6
Continuous
 62
     7
370
    30
100
AcDbLine
 10
109.211814203862
 20
42.59144900331311
 30
0.0
 11
101.9561962263339
 21
42.70942653140299
 31
0.0
  0
LINE
  5
3E4
330
1F
100
AcDbEntity
  8
101
  6
Continuous
 62
     7
370
    30
100
AcDbLine
 10
101.9561962263339
 20
42.70942653140299
 30
0.0
 11
99.06574678813165
 21
41.70661754263896
 31
0.0
  0
LINE
  5
3E5
330
1F
100
AcDbEntity
  8
101
  6
Continuous
 62
     7
370
    30
100
AcDbLine
 10
99.06574678813165
 20
41.70661754263896
 30
0.0
 11
97.88597150723275
 21
39.81897709320075
 31
0.0
  0
LINE
  5
3E6
330
1F
100
AcDbEntity
  8
101
  6
Continuous
 62
     7
370
    30
100
AcDbLine
 10
97.88597150723275
 20
39.81897709320075
 30
0.0
 11
97.88597150723275
 21
38.93414563252659
 31
0.0
  0
LINE
  5
3E7
330
1F
100
AcDbEntity
  8
101
  6
Continuous
 62
     7
370
    30
100
AcDbLine
 10
97.88597150723275
 20
38.93414563252659
 30
0.0
 11
98.65282543981705
 21
36.10268495836929
 31
0.0
  0
LINE
  5
3E8
330
1F
100
AcDbEntity
  8
101
  6
Continuous
 62
     7
370
    30
100
AcDbLine
 10
98.65282543981705
 20
36.10268495836929
 30
0.0
 11
102.3101288106036
 21
31.44257259881872
 31
0.0
  0
LINE
  5
3E9
330
1F
100
AcDbEntity
  8
101
  6
Continuous
 62
     7
370
    30
100
AcDbLine
 10
102.3101288106036
 20
31.44257259881872
 30
0.0
 11
112.7511400465586
 21
23.77403327297603
 31
0.0
  0
LINE
  5
3EA
330
1F
100
AcDbEntity
  8
101
  6
Continuous
 62
     7
370
    30
100
AcDbLine
 10
112.7511400465586
 20
23.77403327297603
 30
0.0
 11
118.3550726308283
 21
19.76279731791985
 31
0.0
  0
LINE
  5
3EB
330
1F
100
AcDbEntity
  8
101
  6
Continuous
 62
     7
370
    30
100
AcDbLine
 10
118.3550726308283
 20
19.76279731791985
 30
0.0
 11
122.779229934199
 21
17.58021304825692
 31
0.0
  0
LINE
  5
3EC
330
1F
100
AcDbEntity
  8
101
  6
Continuous
 62
     7
370
    30
100
AcDbLine
 10
122.779229934199
 20
17.58021304825692
 30
0.0
 11
127.8522636420642
 21
16.87234787971761
 31
0.0
  0
LINE
  5
3ED
330
1F
100
AcDbEntity
  8
101
  6
Continuous
 62
     7
370
    30
100
AcDbLine
 10
127.8522636420642
 20
16.87234787971761
 30
0.0
 11
135.1668703836373
 21
17.16729169994231
 31
0.0
  0
LINE
  5
3EE
330
1F
100
AcDbEntity
  8
101
  6
Continuous
 62
     7
370
    30
100
AcDbLine
 10
135.1668703836373
 20
17.16729169994231
 30
0.0
 11
140.9340144813191
 21
17.88206761623923
 31
0.0
  0
LINE
  5
3EF
330
1F
100
AcDbEntity
  8
101
  6
Continuous
 62
     7
370
    30
100
AcDbLine
 10
141.2692774831512
 20
15.6876188769748
 30
0.0
 11
131.2736119566709
 21
14.51279731791985
 31
0.0
  0
LINE
  5
3F0
330
1F
100
AcDbEntity
  8
101
  6
Continuous
 62
     7
370
    30
100
AcDbLine
 10
131.2736119566709
 20
14.51279731791985
 30
0.0
 11
125.2567580240867
 21
14.68976361005467
 31
0.0
  0
LINE
  5
3F1
330
1F
100
AcDbEntity
  8
101
  6
Continuous
 62
     7
370
    30
100
AcDbLine
 10
125.2567580240867
 20
14.68976361005467
 30
0.0
 11
119.0039490353226
 21
16.87234787971761
 31
0.0
  0
LINE
  5
3F2
330
1F
100
AcDbEntity
  8
101
  6
Continuous
 62
     7
370
    30
100
AcDbLine
 10
119.0039490353226
 20
16.87234787971761
 30
0.0
 11
112.7511400465586
 21
20.58864001454904
 31
0.0
  0
LINE
  5
3F3
330
1F
100
AcDbEntity
  8
101
  6
Continuous
 62
     7
370
    30
100
AcDbLine
 10
112.7511400465586
 20
20.58864001454904
 30
0.0
 11
102.4281063386934
 21
28.49313439657155
 31
0.0
  0
LINE
  5
3F4
330
1F
100
AcDbEntity
  8
101
  6
Continuous
 62
     7
370
    30
100
AcDbLine
 10
102.4281063386934
 20
28.49313439657155
 30
0.0
 11
98.00394903532266
 21
33.27122428421197
 31
0.0
  0
LINE
  5
3F5
330
1F
100
AcDbEntity
  8
101
  6
Continuous
 62
     7
370
    30
100
AcDbLine
 10
98.00394903532266
 20
33.27122428421197
 30
0.0
 11
97.0011400465586
 21
35.80774113814457
 31
0.0
  0
LINE
  5
3F6
330
1F
100
AcDbEntity
  8
101
  6
Continuous
 62
     7
370
    30
100
AcDbLine
 10
97.0011400465586
 20
35.80774113814457
 30
0.0
 11
97.23709510273837
 21
37.8723478797176
 31
0.0
  0
LINE
  5
3F7
330
1F
100
AcDbEntity
  8
101
  6
Continuous
 62
     7
370
    30
100
AcDbLine
 10
97.23709510273837
 20
37.8723478797176
 30
0.0
 11
97.88597150723275
 21
38.93414563252659
 31
0.0
  0
LINE
  5
3F8
330
1F
100
AcDbEntity
  8
101
  6
Continuous
 62
     7
370
    30
100
AcDbLine
 10
140.9340144813191
 20
17.88206761623923
 30
0.0
 11
143.4842861139743
 21
15.04369619432433
 31
0.0
  0
LINE
  5
3F9
330
1F
100
AcDbEntity
  8
101
  6
Continuous
 62
     7
370
    30
100
AcDbLine
 10
143.4842861139743
 20
15.04369619432433
 30
0.0
 11
146.6106906083563
 21
14.68976361005465
 31
0.0
  0
LINE
  5
3FA
330
1F
100
AcDbEntity
  8
101
  6
Continuous
 62
     7
370
    30
100
AcDbLine
 10
146.6106906083563
 20
14.68976361005465
 30
0.0
 11
157.7005782488058
 21
15.16167372241421
 31
0.0
  0
LINE
  5
3FB
330
1F
100
AcDbEntity
  8
101
  6
Continuous
 62
     7
370
    30
100
AcDbLine
 10
157.7005782488058
 20
15.16167372241421
 30
0.0
 11
165.9590052150979
 21
17.63920181230185
 31
0.0
  0
LINE
  5
3FC
330
1F
100
AcDbEntity
  8
101
  6
Continuous
 62
     7
370
    30
100
AcDbLine
 10
165.9590052150979
 20
17.63920181230185
 30
0.0
 11
174.3943984735249
 21
21.65043776735803
 31
0.0
  0
LINE
  5
3FD
330
1F
100
AcDbEntity
  8
101
  6
Continuous
 62
     7
370
    30
100
AcDbLine
 10
174.3943984735249
 20
21.65043776735803
 30
0.0
 11
182.4168703836373
 21
26.01560630668388
 31
0.0
  0
LINE
  5
3FE
330
1F
100
AcDbEntity
  8
101
  6
Continuous
 62
     7
370
    30
100
AcDbLine
 10
182.4168703836373
 20
26.01560630668388
 30
0.0
 11
185.5255782488059
 21
28.26307821679623
 31
0.0
  0
LINE
  5
3FF
330
1F
100
AcDbEntity
  8
101
  6
Continuous
 62
     7
370
    30
100
AcDbLine
 10
103.7136491172689
 20
34.49211475827425
 30
0.0
 11
106.4393422937496
 21
35.33583102578499
 31
0.0
  0
LINE
  5
400
330
1F
100
AcDbEntity
  8
101
  6
Continuous
 62
     7
370
    30
100
AcDbLine
 10
106.4393422937496
 20
35.33583102578499
 30
0.0
 11
110.9814771252103
 21
35.98470743027938
 31
0.0
  0
LINE
  5
401
330
1F
100
AcDbEntity
  8
101
  6
Continuous
 62
     7
370
    30
100
AcDbLine
 10
110.9814771252103
 20
35.98470743027938
 30
0.0
 11
117.8241737544238
 21
35.92571866623443
 31
0.0
  0
LINE
  5
402
330
1F
100
AcDbEntity
  8
101
  6
Continuous
 62
     7
370
    30
100
AcDbLine
 10
117.8241737544238
 20
35.92571866623443
 30
0.0
 11
125.7286681364462
 21
35.27684226174005
 31
0.0
  0
LINE
  5
403
330
1F
100
AcDbEntity
  8
101
  6
Continuous
 62
     7
370
    30
100
AcDbLine
 10
125.7286681364462
 20
35.27684226174005
 30
0.0
 11
134.8719265634126
 21
34.98189844151534
 31
0.0
  0
LINE
  5
404
330
1F
100
AcDbEntity
  8
101
  6
Continuous
 62
     7
370
    30
100
AcDbLine
 10
134.8719265634126
 20
34.98189844151534
 30
0.0
 11
142.6584434173452
 21
34.80493214938051
 31
0.0
  0
LINE
  5
405
330
1F
100
AcDbEntity
  8
101
  6
Continuous
 62
     7
370
    30
100
AcDbLine
 10
142.6584434173452
 20
34.80493214938051
 30
0.0
 11
144.7820389229631
 21
34.86392091342545
 31
0.0
  0
LINE
  5
406
330
1F
100
AcDbEntity
  8
101
  6
Continuous
 62
     7
370
    30
100
AcDbLine
 10
142.83540970948
 20
33.56616810443669
 30
0.0
 11
135.461814203862
 21
33.33021304825691
 31
0.0
  0
LINE
  5
407
330
1F
100
AcDbEntity
  8
101
  6
Continuous
 62
     7
370
    30
100
AcDbLine
 10
135.461814203862
 20
33.33021304825691
 30
0.0
 11
126.3775445409406
 21
33.4481905763468
 31
0.0
  0
LINE
  5
408
330
1F
100
AcDbEntity
  8
101
  6
Continuous
 62
     7
370
    30
100
AcDbLine
 10
126.3775445409406
 20
33.4481905763468
 30
0.0
 11
119.711814203862
 21
33.62515686848162
 31
0.0
  0
LINE
  5
409
330
1F
100
AcDbEntity
  8
101
  6
Continuous
 62
     7
370
    30
100
AcDbLine
 10
119.711814203862
 20
33.62515686848162
 30
0.0
 11
113.4590052150979
 21
34.27403327297601
 31
0.0
  0
LINE
  5
40A
330
1F
100
AcDbEntity
  8
101
  6
Continuous
 62
     7
370
    30
100
AcDbLine
 10
113.4590052150979
 20
34.27403327297601
 30
0.0
 11
106.5573198218395
 21
33.74313439657151
 31
0.0
  0
LINE
  5
40B
330
1F
100
AcDbEntity
  8
101
  6
Continuous
 62
     7
370
    30
100
AcDbLine
 10
106.5573198218395
 20
33.74313439657151
 30
0.0
 11
105.1202298464234
 21
33.18917681968909
 31
0.0
  0
LINE
  5
40C
330
1F
100
AcDbEntity
  8
101
  6
Continuous
 62
     7
370
    30
100
AcDbLine
 10
107.3241737544238
 20
31.14762877859398
 30
0.0
 11
118.8022746732255
 21
33.71954304618919
 31
0.0
  0
LINE
  5
40D
330
1F
100
AcDbEntity
  8
101
  6
Continuous
 62
     7
370
    30
100
AcDbLine
 10
106.1398254284263
 20
32.24470933320218
 30
0.0
 11
111.5713647656597
 21
33.21223552016702
 31
0.0
  0
LINE
  5
40E
330
1F
100
AcDbEntity
  8
101
  6
Continuous
 62
     7
370
    30
100
AcDbLine
 10
101.0503222449554
 20
29.98114121780866
 30
0.0
 11
99.24271308026645
 21
28.31616810443668
 31
0.0
  0
LINE
  5
40F
330
1F
100
AcDbEntity
  8
101
  6
Continuous
 62
     7
370
    30
100
AcDbLine
 10
99.24271308026645
 20
28.31616810443668
 30
0.0
 11
98.06293779936756
 21
25.13077484600973
 31
0.0
  0
LINE
  5
410
330
1F
100
AcDbEntity
  8
101
  6
Continuous
 62
     7
370
    30
100
AcDbLine
 10
98.06293779936756
 20
25.13077484600973
 30
0.0
 11
98.88878049599678
 21
20.9425725988187
 31
0.0
  0
LINE
  5
411
330
1F
100
AcDbEntity
  8
101
  6
Continuous
 62
     7
370
    30
100
AcDbLine
 10
98.88878049599678
 20
20.9425725988187
 30
0.0
 11
101.4252973499294
 21
17.99313439657151
 31
0.0
  0
LINE
  5
412
330
1F
100
AcDbEntity
  8
101
  6
Continuous
 62
     7
370
    30
100
AcDbLine
 10
101.4252973499294
 20
17.99313439657151
 30
0.0
 11
104.7286681364462
 21
16.45942653140297
 31
0.0
  0
LINE
  5
413
330
1F
100
AcDbEntity
  8
101
  6
Continuous
 62
     7
370
    30
100
AcDbLine
 10
104.7286681364462
 20
16.45942653140297
 30
0.0
 11
110.5685557768956
 21
15.27965125050409
 31
0.0
  0
LINE
  5
414
330
1F
100
AcDbEntity
  8
101
  6
Continuous
 62
     7
370
    30
100
AcDbLine
 10
110.5685557768956
 20
15.27965125050409
 30
0.0
 11
115.3466456645361
 21
16.04650518308836
 31
0.0
  0
LINE
  5
415
330
1F
100
AcDbEntity
  8
101
  6
Continuous
 62
     7
370
    30
100
AcDbLine
 10
115.3466456645361
 20
16.04650518308836
 30
0.0
 11
118.2205487641227
 21
17.33795370127984
 31
0.0
  0
LINE
  5
416
330
1F
100
AcDbEntity
  8
101
  6
Continuous
 62
     7
370
    30
100
AcDbLine
 10
118.2205487641227
 20
17.33795370127984
 30
0.0
 11
113.2230501589181
 21
13.45099956511083
 31
0.0
  0
LINE
  5
417
330
1F
100
AcDbEntity
  8
101
  6
Continuous
 62
     7
370
    30
100
AcDbLine
 10
113.2230501589181
 20
13.45099956511083
 30
0.0
 11
106.3803535297046
 21
9.557741138144536
 31
0.0
  0
LINE
  5
418
330
1F
100
AcDbEntity
  8
101
  6
Continuous
 62
     7
370
    30
100
AcDbLine
 10
106.3803535297046
 20
9.557741138144536
 30
0.0
 11
101.1303535297046
 21
7.611111924661387
 31
0.0
  0
LINE
  5
419
330
1F
100
AcDbEntity
  8
101
  6
Continuous
 62
     7
370
    30
100
AcDbLine
 10
101.1303535297046
 20
7.611111924661387
 30
0.0
 11
93.57979173195183
 21
5.487516419043402
 31
0.0
  0
LINE
  5
41A
330
1F
100
AcDbEntity
  8
101
  6
Continuous
 62
     7
370
    30
100
AcDbLine
 10
93.57979173195183
 20
5.487516419043402
 30
0.0
 11
87.26799397914284
 21
5.133583834773745
 31
0.0
  0
LINE
  5
41B
330
1F
100
AcDbEntity
  8
101
  6
Continuous
 62
     7
370
    30
100
AcDbLine
 10
87.26799397914284
 20
5.133583834773745
 30
0.0
 11
83.31574678813159
 21
5.782460239268119
 31
0.0
  0
LINE
  5
41C
330
1F
100
AcDbEntity
  8
101
  6
Continuous
 62
     7
370
    30
100
AcDbLine
 10
83.31574678813159
 20
5.782460239268119
 30
0.0
 11
80.83821869824395
 21
6.962235520167013
 31
0.0
  0
LINE
  5
41D
330
1F
100
AcDbEntity
  8
101
  6
Continuous
 62
     7
370
    30
100
AcDbLine
 10
80.83821869824395
 20
6.962235520167013
 30
0.0
 11
79.18653330498553
 21
8.613920913425432
 31
0.0
  0
LINE
  5
41E
330
1F
100
AcDbEntity
  8
101
  6
Continuous
 62
     7
370
    30
100
AcDbLine
 10
79.18653330498553
 20
8.613920913425432
 30
0.0
 11
79.71743218139001
 21
12.21223552016701
 31
0.0
  0
LINE
  5
41F
330
1F
100
AcDbEntity
  8
101
  6
Continuous
 62
     7
370
    30
100
AcDbLine
 10
79.71743218139001
 20
12.21223552016701
 30
0.0
 11
81.72305015891813
 21
15.92852765499848
 31
0.0
  0
LINE
  5
420
330
1F
100
AcDbEntity
  8
101
  6
Continuous
 62
     7
370
    30
100
AcDbLine
 10
81.72305015891813
 20
15.92852765499848
 30
0.0
 11
84.67248836116529
 21
19.17290967747039
 31
0.0
  0
LINE
  5
421
330
1F
100
AcDbEntity
  8
101
  6
Continuous
 62
     7
370
    30
100
AcDbLine
 10
84.67248836116529
 20
19.17290967747039
 30
0.0
 11
85.7342861139743
 21
20.05774113814454
 31
0.0
  0
LINE
  5
422
330
1F
100
AcDbEntity
  8
101
  6
Continuous
 62
     7
370
    30
100
AcDbLine
 10
99.56906819951364
 20
31.58089558688572
 30
0.0
 11
97.8269827431878
 21
29.90886473365015
 31
0.0
  0
LINE
  5
423
330
1F
100
AcDbEntity
  8
101
  6
Continuous
 62
     7
370
    30
100
AcDbLine
 10
97.8269827431878
 20
29.90886473365015
 30
0.0
 11
95.93934229374959
 21
26.31055012690859
 31
0.0
  0
LINE
  5
424
330
1F
100
AcDbEntity
  8
101
  6
Continuous
 62
     7
370
    30
100
AcDbLine
 10
95.93934229374959
 20
26.31055012690859
 30
0.0
 11
95.93934229374959
 21
22.24032540780746
 31
0.0
  0
LINE
  5
425
330
1F
100
AcDbEntity
  8
101
  6
Continuous
 62
     7
370
    30
100
AcDbLine
 10
95.93934229374959
 20
22.24032540780746
 30
0.0
 11
97.35507263082822
 21
18.34706698084116
 31
0.0
  0
LINE
  5
426
330
1F
100
AcDbEntity
  8
101
  6
Continuous
 62
     7
370
    30
100
AcDbLine
 10
97.35507263082822
 20
18.34706698084116
 30
0.0
 11
101.1893422937496
 21
14.92571866623443
 31
0.0
  0
LINE
  5
427
330
1F
100
AcDbEntity
  8
101
  6
Continuous
 62
     7
370
    30
100
AcDbLine
 10
101.1893422937496
 20
14.92571866623443
 30
0.0
 11
106.9702411701541
 21
12.97908945275128
 31
0.0
  0
LINE
  5
428
330
1F
100
AcDbEntity
  8
101
  6
Continuous
 62
     7
370
    30
100
AcDbLine
 10
106.9702411701541
 20
12.97908945275128
 30
0.0
 11
113.5456727272333
 21
13.70192892505669
 31
0.0
  0
LINE
  5
429
330
1F
100
AcDbEntity
  8
101
  6
Continuous
 62
     7
370
    30
100
AcDbLine
 10
106.9702411701541
 20
12.97908945275128
 30
0.0
 11
101.4252973499293
 21
12.50717934039173
 31
0.0
  0
LINE
  5
42A
330
1F
100
AcDbEntity
  8
101
  6
Continuous
 62
     7
370
    30
100
AcDbLine
 10
101.4252973499293
 20
12.50717934039173
 30
0.0
 11
96.1163085858844
 21
13.21504450893104
 31
0.0
  0
LINE
  5
42B
330
1F
100
AcDbEntity
  8
101
  6
Continuous
 62
     7
370
    30
100
AcDbLine
 10
96.1163085858844
 20
13.21504450893104
 30
0.0
 11
91.51518499037876
 21
15.63358383477375
 31
0.0
  0
LINE
  5
42C
330
1F
100
AcDbEntity
  8
101
  6
Continuous
 62
     7
370
    30
100
AcDbLine
 10
91.51518499037876
 20
15.63358383477375
 30
0.0
 11
88.91967937240123
 21
18.34706698084116
 31
0.0
  0
LINE
  5
42D
330
1F
100
AcDbEntity
  8
101
  6
Continuous
 62
     7
370
    30
100
AcDbLine
 10
88.91967937240123
 20
18.34706698084116
 30
0.0
 11
88.15282543981697
 21
21.76841529544791
 31
0.0
  0
LINE
  5
42E
330
1F
100
AcDbEntity
  8
101
  6
Continuous
 62
     7
370
    30
100
AcDbLine
 10
88.15282543981697
 20
21.76841529544791
 30
0.0
 11
89.09664566453607
 21
26.36953889095354
 31
0.0
  0
LINE
  5
42F
330
1F
100
AcDbEntity
  8
101
  6
Continuous
 62
     7
370
    30
100
AcDbLine
 10
89.09664566453607
 20
26.36953889095354
 30
0.0
 11
92.57698274318774
 21
30.085831025785
 31
0.0
  0
LINE
  5
430
330
1F
100
AcDbEntity
  8
101
  6
Continuous
 62
     7
370
    30
100
AcDbLine
 10
92.57698274318774
 20
30.085831025785
 30
0.0
 11
98.55179520065879
 21
32.67955042564895
 31
0.0
  0
LINE
  5
431
330
1F
100
AcDbEntity
  8
101
  6
Continuous
 62
     7
370
    30
100
AcDbLine
 10
98.00394903532266
 20
33.27122428421197
 30
0.0
 11
92.57698274318774
 21
30.085831025785
 31
0.0
  0
LINE
  5
432
330
1F
100
AcDbEntity
  8
101
  6
Continuous
 62
     7
370
    30
100
AcDbLine
 10
97.2670861160765
 20
35.13505402112878
 30
0.0
 11
91.69215128251359
 21
31.9734714752232
 31
0.0
  0
LINE
  5
433
330
1F
100
AcDbEntity
  8
101
  6
Continuous
 62
     7
370
    30
100
AcDbLine
 10
91.69215128251359
 20
31.9734714752232
 30
0.0
 11
88.15282543981697
 21
28.6111119246614
 31
0.0
  0
LINE
  5
434
330
1F
100
AcDbEntity
  8
101
  6
Continuous
 62
     7
370
    30
100
AcDbLine
 10
88.15282543981697
 20
28.6111119246614
 30
0.0
 11
86.56012881060347
 21
26.0745950707288
 31
0.0
  0
LINE
  5
435
330
1F
100
AcDbEntity
  8
101
  6
Continuous
 62
     7
370
    30
100
AcDbLine
 10
86.56012881060347
 20
26.0745950707288
 30
0.0
 11
85.61630858588437
 21
23.47908945275128
 31
0.0
  0
LINE
  5
436
330
1F
100
AcDbEntity
  8
101
  6
Continuous
 62
     7
370
    30
100
AcDbLine
 10
85.61630858588437
 20
23.47908945275128
 30
0.0
 11
85.7342861139743
 21
20.05774113814454
 31
0.0
  0
LINE
  5
437
330
1F
100
AcDbEntity
  8
101
  6
Continuous
 62
     7
370
    30
100
AcDbLine
 10
85.7342861139743
 20
20.05774113814454
 30
0.0
 11
86.79608386678326
 21
15.63358383477375
 31
0.0
  0
LINE
  5
438
330
1F
100
AcDbEntity
  8
101
  6
Continuous
 62
     7
370
    30
100
AcDbLine
 10
86.79608386678326
 20
15.63358383477375
 30
0.0
 11
89.92248836116526
 21
12.80212316061645
 31
0.0
  0
LINE
  5
439
330
1F
100
AcDbEntity
  8
101
  6
Continuous
 62
     7
370
    30
100
AcDbLine
 10
89.92248836116526
 20
12.80212316061645
 30
0.0
 11
94.64158948476079
 21
10.38358383477375
 31
0.0
  0
LINE
  5
43A
330
1F
100
AcDbEntity
  8
101
  6
Continuous
 62
     7
370
    30
100
AcDbLine
 10
94.64158948476079
 20
10.38358383477375
 30
0.0
 11
100.0685557768956
 21
9.734707430279371
 31
0.0
  0
LINE
  5
43B
330
1F
100
AcDbEntity
  8
101
  6
Continuous
 62
     7
370
    30
100
AcDbLine
 10
100.0685557768956
 20
9.734707430279371
 30
0.0
 11
106.3803535297046
 21
9.557741138144536
 31
0.0
  0
LINE
  5
43C
330
1F
100
AcDbEntity
  8
101
  6
Continuous
 62
     7
370
    30
100
AcDbLine
 10
109.2677164235497
 20
11.20055106050465
 30
0.0
 11
100.5994546533001
 21
10.85549394713331
 31
0.0
  0
LINE
  5
43D
330
1F
100
AcDbEntity
  8
101
  6
Continuous
 62
     7
370
    30
100
AcDbLine
 10
100.5994546533001
 20
10.85549394713331
 30
0.0
 11
93.16687038363717
 21
12.50717934039173
 31
0.0
  0
LINE
  5
43E
330
1F
100
AcDbEntity
  8
101
  6
Continuous
 62
     7
370
    30
100
AcDbLine
 10
93.16687038363717
 20
12.50717934039173
 30
0.0
 11
88.68372431622144
 21
15.5745950707288
 31
0.0
  0
LINE
  5
43F
330
1F
100
AcDbEntity
  8
101
  6
Continuous
 62
     7
370
    30
100
AcDbLine
 10
88.68372431622144
 20
15.5745950707288
 30
0.0
 11
86.97305015891807
 21
19.11392091342543
 31
0.0
  0
LINE
  5
440
330
1F
100
AcDbEntity
  8
101
  6
Continuous
 62
     7
370
    30
100
AcDbLine
 10
86.97305015891807
 20
19.11392091342543
 30
0.0
 11
86.6191175746484
 21
22.65324675612206
 31
0.0
  0
LINE
  5
441
330
1F
100
AcDbEntity
  8
101
  6
Continuous
 62
     7
370
    30
100
AcDbLine
 10
86.6191175746484
 20
22.65324675612206
 30
0.0
 11
87.38597150723267
 21
26.13358383477375
 31
0.0
  0
LINE
  5
442
330
1F
100
AcDbEntity
  8
101
  6
Continuous
 62
     7
370
    30
100
AcDbLine
 10
96.45371934351216
 20
27.29108137801855
 30
0.0
 11
91.10226364206413
 21
24.7178534976951
 31
0.0
  0
LINE
  5
443
330
1F
100
AcDbEntity
  8
101
  6
Continuous
 62
     7
370
    30
100
AcDbLine
 10
91.10226364206413
 20
24.7178534976951
 30
0.0
 11
88.3177706778278
 21
22.57252333075078
 31
0.0
  0
LINE
  5
444
330
1F
100
AcDbEntity
  8
101
  6
Continuous
 62
     7
370
    30
100
AcDbLine
 10
88.80605621995376
 20
24.95291534861488
 30
0.0
 11
93.16687038363717
 21
27.84425799207713
 31
0.0
  0
LINE
  5
445
330
1F
100
AcDbEntity
  8
101
  6
Continuous
 62
     7
370
    30
100
AcDbLine
 10
93.16687038363717
 20
27.84425799207713
 30
0.0
 11
97.8269827431878
 21
29.90886473365015
 31
0.0
  0
LINE
  5
446
330
1F
100
AcDbEntity
  8
101
  6
Continuous
 62
     7
370
    30
100
AcDbLine
 10
98.90087014298531
 20
32.30254948793631
 30
0.0
 11
94.43512881060347
 21
30.43976361005465
 31
0.0
  0
LINE
  5
447
330
1F
100
AcDbEntity
  8
101
  6
Continuous
 62
     7
370
    30
100
AcDbLine
 10
94.43512881060347
 20
30.43976361005465
 30
0.0
 11
91.73586235256865
 21
29.18768552393746
 31
0.0
  0
LINE
  5
448
330
1F
100
AcDbEntity
  8
101
  6
Continuous
 62
     7
370
    30
100
AcDbLine
 10
86.56012881060347
 20
26.0745950707288
 30
0.0
 11
82.25394903532258
 21
22.80071866623442
 31
0.0
  0
LINE
  5
449
330
1F
100
AcDbEntity
  8
101
  6
Continuous
 62
     7
370
    30
100
AcDbLine
 10
82.25394903532258
 20
22.80071866623442
 30
0.0
 11
78.71462319262595
 21
17.96364001454901
 31
0.0
  0
LINE
  5
44A
330
1F
100
AcDbEntity
  8
101
  6
Continuous
 62
     7
370
    30
100
AcDbLine
 10
78.71462319262595
 20
17.96364001454901
 30
0.0
 11
77.12192656341246
 21
14.77824675612206
 31
0.0
  0
LINE
  5
44B
330
1F
100
AcDbEntity
  8
101
  6
Continuous
 62
     7
370
    30
100
AcDbLine
 10
77.12192656341246
 20
14.77824675612206
 30
0.0
 11
76.47305015891807
 21
10.94397709320071
 31
0.0
  0
LINE
  5
44C
330
1F
100
AcDbEntity
  8
101
  6
Continuous
 62
     7
370
    30
100
AcDbLine
 10
76.47305015891807
 20
10.94397709320071
 30
0.0
 11
77.65282543981697
 21
5.811954621290596
 31
0.0
  0
LINE
  5
44D
330
1F
100
AcDbEntity
  8
101
  6
Continuous
 62
     7
370
    30
100
AcDbLine
 10
77.65282543981697
 20
5.811954621290596
 30
0.0
 11
80.18934229374953
 21
2.331617542638895
 31
0.0
  0
LINE
  5
44E
330
1F
100
AcDbEntity
  8
101
  6
Continuous
 62
     7
370
    30
100
AcDbLine
 10
80.18934229374953
 20
2.331617542638895
 30
0.0
 11
85.3803535297046
 21
0.8568984415152983
 31
0.0
  0
LINE
  5
44F
330
1F
100
AcDbEntity
  8
101
  6
Continuous
 62
     7
370
    30
100
AcDbLine
 10
85.3803535297046
 20
0.8568984415152983
 30
0.0
 11
92.93091532745741
 21
0.7389209134254173
 31
0.0
  0
LINE
  5
450
330
1F
100
AcDbEntity
  8
101
  6
Continuous
 62
     7
370
    30
100
AcDbLine
 10
92.93091532745741
 20
0.7389209134254173
 30
0.0
 11
99.47866813644619
 21
1.800718666234403
 31
0.0
  0
LINE
  5
451
330
1F
100
AcDbEntity
  8
101
  6
Continuous
 62
     7
370
    30
100
AcDbLine
 10
99.47866813644619
 20
1.800718666234403
 30
0.0
 11
106.4983310577945
 21
4.573190576346775
 31
0.0
  0
LINE
  5
452
330
1F
100
AcDbEntity
  8
101
  6
Continuous
 62
     7
370
    30
100
AcDbLine
 10
106.4983310577945
 20
4.573190576346775
 30
0.0
 11
114.2848479117271
 21
8.64341529544788
 31
0.0
  0
LINE
  5
453
330
1F
100
AcDbEntity
  8
101
  6
Continuous
 62
     7
370
    30
100
AcDbLine
 10
114.2848479117271
 20
8.64341529544788
 30
0.0
 11
120.1247355521765
 21
12.00577484600969
 31
0.0
  0
LINE
  5
454
330
1F
100
AcDbEntity
  8
101
  6
Continuous
 62
     7
370
    30
100
AcDbLine
 10
120.1247355521765
 20
12.00577484600969
 30
0.0
 11
124.2827484683994
 21
15.02974807760592
 31
0.0
  0
LINE
  5
455
330
1F
100
AcDbEntity
  8
101
  6
Continuous
 62
     7
370
    30
100
AcDbLine
 10
121.8699231672214
 20
15.87196068273406
 30
0.0
 11
115.7005782488057
 21
11.82880855387486
 31
0.0
  0
LINE
  5
456
330
1F
100
AcDbEntity
  8
101
  6
Continuous
 62
     7
370
    30
100
AcDbLine
 10
115.7005782488057
 20
11.82880855387486
 30
0.0
 11
108.3859715072327
 21
7.640606306683836
 31
0.0
  0
LINE
  5
457
330
1F
100
AcDbEntity
  8
101
  6
Continuous
 62
     7
370
    30
100
AcDbLine
 10
108.3859715072327
 20
7.640606306683836
 30
0.0
 11
100.4224883611653
 21
4.632179340391701
 31
0.0
  0
LINE
  5
458
330
1F
100
AcDbEntity
  8
101
  6
Continuous
 62
     7
370
    30
100
AcDbLine
 10
100.4224883611653
 20
4.632179340391701
 30
0.0
 11
91.98709510273828
 21
2.331617542638895
 31
0.0
  0
LINE
  5
459
330
1F
100
AcDbEntity
  8
101
  6
Continuous
 62
     7
370
    30
100
AcDbLine
 10
91.98709510273828
 20
2.331617542638895
 30
0.0
 11
83.6696793724012
 21
2.626561362863612
 31
0.0
  0
LINE
  5
45A
330
1F
100
AcDbEntity
  8
101
  6
Continuous
 62
     7
370
    30
100
AcDbLine
 10
83.6696793724012
 20
2.626561362863612
 30
0.0
 11
78.44471362836175
 21
4.725410362589571
 31
0.0
  0
LINE
  5
45B
330
1F
100
AcDbEntity
  8
101
  6
Continuous
 62
     7
370
    30
100
AcDbLine
 10
85.65396471495107
 20
22.38706170981712
 30
0.0
 11
83.37473555217649
 21
20.32319057634678
 31
0.0
  0
LINE
  5
45C
330
1F
100
AcDbEntity
  8
101
  6
Continuous
 62
     7
370
    30
100
AcDbLine
 10
83.37473555217649
 20
20.32319057634678
 30
0.0
 11
80.5432748780192
 21
17.01981978982991
 31
0.0
  0
LINE
  5
45D
330
1F
100
AcDbEntity
  8
101
  6
Continuous
 62
     7
370
    30
100
AcDbLine
 10
80.5432748780192
 20
17.01981978982991
 30
0.0
 11
78.47866813644616
 21
11.53386473365015
 31
0.0
  0
LINE
  5
45E
330
1F
100
AcDbEntity
  8
101
  6
Continuous
 62
     7
370
    30
100
AcDbLine
 10
122.284586908963
 20
19.46149636889669
 30
0.0
 11
142.1865333049855
 21
33.0057748460097
 31
0.0
  0
LINE
  5
45F
330
1F
100
AcDbEntity
  8
101
  6
Continuous
 62
     7
370
    30
100
AcDbLine
 10
142.1865333049855
 20
33.0057748460097
 30
0.0
 11
154.279229934199
 21
40.91026922803218
 31
0.0
  0
LINE
  5
460
330
1F
100
AcDbEntity
  8
101
  6
Continuous
 62
     7
370
    30
100
AcDbLine
 10
154.279229934199
 20
40.91026922803218
 30
0.0
 11
158.7033872375698
 21
42.85689844151533
 31
0.0
  0
LINE
  5
461
330
1F
100
AcDbEntity
  8
101
  6
Continuous
 62
     7
370
    30
100
AcDbLine
 10
158.7033872375698
 20
42.85689844151533
 30
0.0
 11
160.591027687008
 21
43.7417299021895
 31
0.0
  0
LINE
  5
462
330
1F
100
AcDbEntity
  8
101
  6
Continuous
 62
     7
370
    30
100
AcDbLine
 10
161.7118142038619
 20
42.97487596960521
 30
0.0
 11
155.400016451053
 21
39.61251641904342
 31
0.0
  0
LINE
  5
463
330
1F
100
AcDbEntity
  8
101
  6
Continuous
 62
     7
370
    30
100
AcDbLine
 10
155.400016451053
 20
39.61251641904342
 30
0.0
 11
149.6781063386934
 21
35.77824675612207
 31
0.0
  0
LINE
  5
464
330
1F
100
AcDbEntity
  8
101
  6
Continuous
 62
     7
370
    30
100
AcDbLine
 10
149.6781063386934
 20
35.77824675612207
 30
0.0
 11
125.4647082121806
 21
18.36326607180064
 31
0.0
  0
LINE
  5
465
330
1F
100
AcDbEntity
  8
101
  6
Continuous
 62
     7
370
    30
100
AcDbLine
 10
128.029229934199
 20
17.81616810443668
 30
0.0
 11
136.2876569004912
 21
23.39060630668385
 31
0.0
  0
LINE
  5
466
330
1F
100
AcDbEntity
  8
101
  6
Continuous
 62
     7
370
    30
100
AcDbLine
 10
136.2876569004912
 20
23.39060630668385
 30
0.0
 11
148.0264209454351
 21
31.94397709320071
 31
0.0
  0
LINE
  5
467
330
1F
100
AcDbEntity
  8
101
  6
Continuous
 62
     7
370
    30
100
AcDbLine
 10
148.0264209454351
 20
31.94397709320071
 30
0.0
 11
157.7595670128508
 21
38.7866737224142
 31
0.0
  0
LINE
  5
468
330
1F
100
AcDbEntity
  8
101
  6
Continuous
 62
     7
370
    30
100
AcDbLine
 10
157.7595670128508
 20
38.7866737224142
 30
0.0
 11
163.0685557768957
 21
41.67712316061645
 31
0.0
  0
LINE
  5
469
330
1F
100
AcDbEntity
  8
101
  6
Continuous
 62
     7
370
    30
100
AcDbLine
 10
162.832600720716
 20
40.55633664376251
 30
0.0
 11
159.6615207058645
 21
39.82218184416612
 31
0.0
  0
LINE
  5
46A
330
1F
100
AcDbEntity
  8
101
  6
Continuous
 62
     7
370
    30
100
AcDbLine
 10
154.6638423018974
 20
36.61028544077429
 30
0.0
 11
163.3634995971204
 21
38.9046512505041
 31
0.0
  0
LINE
  5
46B
330
1F
100
AcDbEntity
  8
101
  6
Continuous
 62
     7
370
    30
100
AcDbLine
 10
161.0629377993676
 20
37.72487596960521
 30
0.0
 11
149.2651849903789
 21
31.17712316061644
 31
0.0
  0
LINE
  5
46C
330
1F
100
AcDbEntity
  8
101
  6
Continuous
 62
     7
370
    30
100
AcDbLine
 10
149.2651849903789
 20
31.17712316061644
 30
0.0
 11
139.2634934162887
 21
25.55892939608407
 31
0.0
  0
LINE
  5
46D
330
1F
100
AcDbEntity
  8
101
  6
Continuous
 62
     7
370
    30
100
AcDbLine
 10
131.5911693817695
 20
18.24979551544527
 30
0.0
 11
140.8002973499295
 21
23.21364001454904
 31
0.0
  0
LINE
  5
46E
330
1F
100
AcDbEntity
  8
101
  6
Continuous
 62
     7
370
    30
100
AcDbLine
 10
139.058045635244
 20
38.51103472096728
 30
0.0
 11
158.7033872375698
 21
42.85689844151533
 31
0.0
  0
LINE
  5
46F
330
1F
100
AcDbEntity
  8
101
  6
Continuous
 62
     7
370
    30
100
AcDbLine
 10
145.1344609324302
 20
38.45260765080202
 30
0.0
 11
152.3066895660788
 21
39.62090137765114
 31
0.0
  0
LINE
  5
470
330
1F
100
AcDbEntity
  8
101
  6
Continuous
 62
     7
370
    30
100
AcDbLine
 10
158.1134995971204
 20
43.26981978982995
 30
0.0
 11
158.9983310577946
 21
44.62656136286365
 31
0.0
  0
LINE
  5
471
330
1F
100
AcDbEntity
  8
101
  6
Continuous
 62
     7
370
    30
100
AcDbLine
 10
158.9983310577946
 20
44.62656136286365
 30
0.0
 11
160.8859715072328
 21
45.15746023926815
 31
0.0
  0
LINE
  5
472
330
1F
100
AcDbEntity
  8
101
  6
Continuous
 62
     7
370
    30
100
AcDbLine
 10
160.8859715072328
 20
45.15746023926815
 30
0.0
 11
161.711814203862
 21
46.5731905763468
 31
0.0
  0
LINE
  5
473
330
1F
100
AcDbEntity
  8
101
  6
Continuous
 62
     7
370
    30
100
AcDbLine
 10
161.711814203862
 20
46.5731905763468
 30
0.0
 11
163.3634995971204
 21
46.75015686848164
 31
0.0
  0
LINE
  5
474
330
1F
100
AcDbEntity
  8
101
  6
Continuous
 62
     7
370
    30
100
AcDbLine
 10
163.3634995971204
 20
46.75015686848164
 30
0.0
 11
164.7792299341991
 21
45.0984714752232
 31
0.0
  0
LINE
  5
475
330
1F
100
AcDbEntity
  8
101
  6
Continuous
 62
     7
370
    30
100
AcDbLine
 10
164.7792299341991
 20
45.0984714752232
 30
0.0
 11
165.6640613948733
 21
42.67993214938051
 31
0.0
  0
LINE
  5
476
330
1F
100
AcDbEntity
  8
101
  6
Continuous
 62
     7
370
    30
100
AcDbLine
 10
165.6640613948733
 20
42.67993214938051
 30
0.0
 11
167.2567580240868
 21
40.26139282353781
 31
0.0
  0
LINE
  5
477
330
1F
100
AcDbEntity
  8
101
  6
Continuous
 62
     7
370
    30
100
AcDbLine
 10
167.2567580240868
 20
40.26139282353781
 30
0.0
 11
167.8466456645362
 21
38.96364001454905
 31
0.0
  0
LINE
  5
478
330
1F
100
AcDbEntity
  8
101
  6
Continuous
 62
     7
370
    30
100
AcDbLine
 10
167.8466456645362
 20
38.96364001454905
 30
0.0
 11
169.4983310577946
 21
38.72768495836926
 31
0.0
  0
LINE
  5
479
330
1F
100
AcDbEntity
  8
101
  6
Continuous
 62
     7
370
    30
100
AcDbLine
 10
169.4983310577946
 20
38.72768495836926
 30
0.0
 11
170.1652695086249
 21
37.54749205790196
 31
0.0
  0
LINE
  5
47A
330
1F
100
AcDbEntity
  8
101
  6
Continuous
 62
     7
370
    30
100
AcDbLine
 10
163.8870202879643
 20
35.8631863797251
 30
0.0
 11
163.7764209454351
 21
39.31757259881871
 31
0.0
  0
LINE
  5
47B
330
1F
100
AcDbEntity
  8
101
  6
Continuous
 62
     7
370
    30
100
AcDbLine
 10
163.7764209454351
 20
39.31757259881871
 30
0.0
 11
162.714623192626
 21
42.62094338533556
 31
0.0
  0
LINE
  5
47C
330
1F
100
AcDbEntity
  8
101
  6
Continuous
 62
     7
370
    30
100
AcDbLine
 10
158.6228057694448
 20
44.05075592072733
 30
0.0
 11
160.0601288106036
 21
44.03667372241421
 31
0.0
  0
LINE
  5
47D
330
1F
100
AcDbEntity
  8
101
  6
Continuous
 62
     7
370
    30
100
AcDbLine
 10
160.0601288106036
 20
44.03667372241421
 30
0.0
 11
163.5404658892553
 21
42.20802203702096
 31
0.0
  0
LINE
  5
47E
330
1F
100
AcDbEntity
  8
101
  6
Continuous
 62
     7
370
    30
100
AcDbLine
 10
163.5404658892553
 20
42.20802203702096
 30
0.0
 11
165.0741737544238
 21
41.3231905763468
 31
0.0
  0
LINE
  5
47F
330
1F
100
AcDbEntity
  8
101
  6
Continuous
 62
     7
370
    30
100
AcDbLine
 10
165.0741737544238
 20
41.3231905763468
 30
0.0
 11
166.4309153274575
 21
38.9046512505041
 31
0.0
  0
LINE
  5
480
330
1F
100
AcDbEntity
  8
101
  6
Continuous
 62
     7
370
    30
100
AcDbLine
 10
160.8859715072328
 20
45.15746023926815
 30
0.0
 11
162.4786681364463
 21
45.0984714752232
 31
0.0
  0
LINE
  5
481
330
1F
100
AcDbEntity
  8
101
  6
Continuous
 62
     7
370
    30
100
AcDbLine
 10
161.711814203862
 20
46.5731905763468
 30
0.0
 11
162.4786681364463
 21
45.0984714752232
 31
0.0
  0
LINE
  5
482
330
1F
100
AcDbEntity
  8
101
  6
Continuous
 62
     7
370
    30
100
AcDbLine
 10
165.0741737544238
 20
41.3231905763468
 30
0.0
 11
165.3101288106036
 21
38.66869619432433
 31
0.0
  0
LINE
  5
483
330
1F
100
AcDbEntity
  8
101
  6
Continuous
 62
     7
370
    30
100
AcDbLine
 10
166.801030670005
 20
36.66986453478373
 30
0.0
 11
166.7848479117272
 21
38.3737523740996
 31
0.0
  0
LINE
  5
484
330
1F
100
AcDbEntity
  8
101
  6
Continuous
 62
     7
370
    30
100
AcDbLine
 10
166.7848479117272
 20
38.3737523740996
 30
0.0
 11
167.8466456645362
 21
38.96364001454905
 31
0.0
  0
LINE
  5
485
330
1F
100
AcDbEntity
  8
101
  6
Continuous
 62
     7
370
    30
100
AcDbLine
 10
167.9056344285811
 20
38.10830293589736
 30
0.0
 11
167.4042299341991
 21
37.72487596960523
 31
0.0
  0
LINE
  5
486
330
1F
100
AcDbEntity
  8
101
  6
Continuous
 62
     7
370
    30
100
AcDbLine
 10
167.4042299341991
 20
37.72487596960523
 30
0.0
 11
167.4505857062981
 21
36.83931367468628
 31
0.0
  0
LINE
  5
487
330
1F
100
AcDbEntity
  8
101
  6
Continuous
 62
     7
370
    30
100
AcDbLine
 10
164.0484632455011
 20
45.95103261203749
 30
0.0
 11
171.5039490353227
 21
50.4369546212906
 31
0.0
  0
LINE
  5
488
330
1F
100
AcDbEntity
  8
101
  6
Continuous
 62
     7
370
    30
100
AcDbLine
 10
171.5039490353227
 20
50.4369546212906
 30
0.0
 11
179.58540970948
 21
54.21223552016701
 31
0.0
  0
LINE
  5
489
330
1F
100
AcDbEntity
  8
101
  6
Continuous
 62
     7
370
    30
100
AcDbLine
 10
179.58540970948
 20
54.21223552016701
 30
0.0
 11
182.5938366757721
 21
55.68695462129062
 31
0.0
  0
LINE
  5
48A
330
1F
100
AcDbEntity
  8
101
  6
Continuous
 62
     7
370
    30
100
AcDbLine
 10
165.5370931868489
 20
43.02697858464702
 30
0.0
 11
170.3241737544238
 21
46.07178608196477
 31
0.0
  0
LINE
  5
48B
330
1F
100
AcDbEntity
  8
101
  6
Continuous
 62
     7
370
    30
100
AcDbLine
 10
170.3241737544238
 20
46.07178608196477
 30
0.0
 11
174.6303535297047
 21
48.07740405949286
 31
0.0
  0
LINE
  5
48C
330
1F
100
AcDbEntity
  8
101
  6
Continuous
 62
     7
370
    30
100
AcDbLine
 10
174.6303535297047
 20
48.07740405949286
 30
0.0
 11
184.5404658892552
 21
52.97347147522319
 31
0.0
  0
LINE
  5
48D
330
1F
100
AcDbEntity
  8
101
  6
Continuous
 62
     7
370
    30
100
AcDbLine
 10
164.7792299341991
 20
45.0984714752232
 30
0.0
 11
170.9730501589182
 21
48.6672916999423
 31
0.0
  0
LINE
  5
48E
330
1F
100
AcDbEntity
  8
101
  6
Continuous
 62
     7
370
    30
100
AcDbLine
 10
170.9730501589182
 20
48.6672916999423
 30
0.0
 11
178.4056344285811
 21
52.26560630668388
 31
0.0
  0
LINE
  5
48F
330
1F
100
AcDbEntity
  8
101
  6
Continuous
 62
     7
370
    30
100
AcDbLine
 10
178.4056344285811
 20
52.26560630668388
 30
0.0
 11
183.8915894847609
 21
54.68414563252657
 31
0.0
  0
LINE
  5
490
330
1F
100
AcDbEntity
  8
101
  6
Continuous
 62
     7
370
    30
100
AcDbLine
 10
169.1675146490592
 20
45.33609670591589
 30
0.0
 11
173.8634995971204
 21
46.36672990218949
 31
0.0
  0
LINE
  5
491
330
1F
100
AcDbEntity
  8
101
  6
Continuous
 62
     7
370
    30
100
AcDbLine
 10
173.8634995971204
 20
46.36672990218949
 30
0.0
 11
180.4112524061092
 21
47.31055012690859
 31
0.0
  0
LINE
  5
492
330
1F
100
AcDbEntity
  8
101
  6
Continuous
 62
     7
370
    30
100
AcDbLine
 10
180.4112524061092
 20
47.31055012690859
 30
0.0
 11
187.1359715072329
 21
48.01841529544791
 31
0.0
  0
LINE
  5
493
330
1F
100
AcDbEntity
  8
101
  6
Continuous
 62
     7
370
    30
100
AcDbLine
 10
187.1359715072329
 20
48.01841529544791
 30
0.0
 11
194.3326007207159
 21
48.31335911567263
 31
0.0
  0
LINE
  5
494
330
1F
100
AcDbEntity
  8
101
  6
Continuous
 62
     7
370
    30
100
AcDbLine
 10
166.2162182553329
 20
41.84147173164542
 30
0.0
 11
172.0938366757721
 21
43.18133664376251
 31
0.0
  0
LINE
  5
495
330
1F
100
AcDbEntity
  8
101
  6
Continuous
 62
     7
370
    30
100
AcDbLine
 10
172.0938366757721
 20
43.18133664376251
 30
0.0
 11
179.8803535297047
 21
44.65605574488611
 31
0.0
  0
LINE
  5
496
330
1F
100
AcDbEntity
  8
101
  6
Continuous
 62
     7
370
    30
100
AcDbLine
 10
179.8803535297047
 20
44.65605574488611
 30
0.0
 11
186.0741737544238
 21
45.30493214938048
 31
0.0
  0
LINE
  5
497
330
1F
100
AcDbEntity
  8
101
  6
Continuous
 62
     7
370
    30
100
AcDbLine
 10
172.152825439817
 20
44.2431343965715
 30
0.0
 11
179.0545108330755
 21
46.01279731791983
 31
0.0
  0
LINE
  5
498
330
1F
100
AcDbEntity
  8
101
  6
Continuous
 62
     7
370
    30
100
AcDbLine
 10
179.0545108330755
 20
46.01279731791983
 30
0.0
 11
184.4814771252103
 21
46.77965125050409
 31
0.0
  0
LINE
  5
499
330
1F
100
AcDbEntity
  8
101
  6
Continuous
 62
     7
370
    30
100
AcDbLine
 10
184.4814771252103
 20
46.77965125050409
 30
0.0
 11
191.3831625184687
 21
47.0745950707288
 31
0.0
  0
LINE
  5
49A
330
1F
100
AcDbEntity
  8
101
  6
Continuous
 62
     7
370
    30
100
AcDbLine
 10
167.484026378712
 20
39.76140244336234
 30
0.0
 11
174.9842861139743
 21
41.35268495836926
 31
0.0
  0
LINE
  5
49B
330
1F
100
AcDbEntity
  8
101
  6
Continuous
 62
     7
370
    30
100
AcDbLine
 10
170.8550726308283
 20
38.28526922803217
 30
0.0
 11
186.0741737544238
 21
45.30493214938048
 31
0.0
  0
LINE
  5
49C
330
1F
100
AcDbEntity
  8
101
  6
Continuous
 62
     7
370
    30
100
AcDbLine
 10
186.0741737544238
 20
45.30493214938048
 30
0.0
 11
191.3831625184687
 21
47.0745950707288
 31
0.0
  0
LINE
  5
49D
330
1F
100
AcDbEntity
  8
101
  6
Continuous
 62
     7
370
    30
100
AcDbLine
 10
191.3831625184687
 20
47.0745950707288
 30
0.0
 11
194.3326007207159
 21
48.31335911567263
 31
0.0
  0
LINE
  5
49E
330
1F
100
AcDbEntity
  8
101
  6
Continuous
 62
     7
370
    30
100
AcDbLine
 10
194.3326007207159
 20
48.31335911567263
 30
0.0
 11
203.9477692600418
 21
52.3245950707288
 31
0.0
  0
LINE
  5
49F
330
1F
100
AcDbEntity
  8
101
  6
Continuous
 62
     7
370
    30
100
AcDbLine
 10
203.9477692600418
 20
52.3245950707288
 30
0.0
 11
211.6203169501756
 21
54.99865266354513
 31
0.0
  0
LINE
  5
4A0
330
1F
100
AcDbEntity
  8
101
  6
Continuous
 62
     7
370
    30
100
AcDbLine
 10
178.5800555202368
 20
38.54458024154957
 30
0.0
 11
191.3241737544238
 21
43.12234787971757
 31
0.0
  0
LINE
  5
4A1
330
1F
100
AcDbEntity
  8
101
  6
Continuous
 62
     7
370
    30
100
AcDbLine
 10
191.3241737544238
 20
43.12234787971757
 30
0.0
 11
201.942251319988
 21
46.21612348454732
 31
0.0
  0
LINE
  5
4A2
330
1F
100
AcDbEntity
  8
101
  6
Continuous
 62
     7
370
    30
100
AcDbLine
 10
174.4236585555465
 20
38.21915176183359
 30
0.0
 11
186.0741737544238
 21
43.29931417185239
 31
0.0
  0
LINE
  5
4A3
330
1F
100
AcDbEntity
  8
101
  6
Continuous
 62
     7
370
    30
100
AcDbLine
 10
186.0741737544238
 20
43.29931417185239
 30
0.0
 11
195.276420945435
 21
46.60268495836925
 31
0.0
  0
LINE
  5
4A4
330
1F
100
AcDbEntity
  8
101
  6
Continuous
 62
     7
370
    30
100
AcDbLine
 10
195.276420945435
 20
46.60268495836925
 30
0.0
 11
207.0741737544238
 21
50.49594338533555
 31
0.0
  0
LINE
  5
4A5
330
1F
100
AcDbEntity
  8
101
  6
Continuous
 62
     7
370
    30
100
AcDbLine
 10
207.0741737544238
 20
50.49594338533555
 30
0.0
 11
210.3562699047278
 21
51.70327899041939
 31
0.0
  0
LINE
  5
4A6
330
1F
100
AcDbEntity
  8
101
  6
Continuous
 62
     7
370
    30
100
AcDbLine
 10
193.0348479117272
 20
44.42010068870633
 30
0.0
 11
205.0205711350299
 21
47.88008014132672
 31
0.0
  0
LINE
  5
4A7
330
1F
100
AcDbEntity
  8
101
  6
Continuous
 62
     7
370
    30
100
AcDbLine
 10
174.2602068914235
 20
46.42391293560254
 30
0.0
 11
184.2455220690306
 21
52.20661754263887
 31
0.0
  0
LINE
  5
4A8
330
1F
100
AcDbEntity
  8
101
  6
Continuous
 62
     7
370
    30
100
AcDbLine
 10
184.2455220690306
 20
52.20661754263887
 30
0.0
 11
192.0910276870081
 21
57.27965125050406
 31
0.0
  0
LINE
  5
4A9
330
1F
100
AcDbEntity
  8
101
  6
Continuous
 62
     7
370
    30
100
AcDbLine
 10
192.0910276870081
 20
57.27965125050406
 30
0.0
 11
198.2258591476823
 21
60.64201080106585
 31
0.0
  0
LINE
  5
4AA
330
1F
100
AcDbEntity
  8
101
  6
Continuous
 62
     7
370
    30
100
AcDbLine
 10
198.2258591476823
 20
60.64201080106585
 30
0.0
 11
199.7403782614888
 21
61.22607220391728
 31
0.0
  0
LINE
  5
4AB
330
1F
100
AcDbEntity
  8
101
  6
Continuous
 62
     7
370
    30
100
AcDbLine
 10
181.7193484504374
 20
47.44824444736417
 30
0.0
 11
185.897207462289
 21
50.67290967747033
 31
0.0
  0
LINE
  5
4AC
330
1F
100
AcDbEntity
  8
101
  6
Continuous
 62
     7
370
    30
100
AcDbLine
 10
185.897207462289
 20
50.67290967747033
 30
0.0
 11
191.9140613948733
 21
54.74313439657146
 31
0.0
  0
LINE
  5
4AD
330
1F
100
AcDbEntity
  8
101
  6
Continuous
 62
     7
370
    30
100
AcDbLine
 10
191.9140613948733
 20
54.74313439657146
 30
0.0
 11
197.9899040915025
 21
58.16448271117821
 31
0.0
  0
LINE
  5
4AE
330
1F
100
AcDbEntity
  8
101
  6
Continuous
 62
     7
370
    30
100
AcDbLine
 10
197.9899040915025
 20
58.16448271117821
 30
0.0
 11
203.0174174806793
 21
60.46397005991949
 31
0.0
  0
LINE
  5
4AF
330
1F
100
AcDbEntity
  8
101
  6
Continuous
 62
     7
370
    30
100
AcDbLine
 10
183.7188888868598
 20
48.99158243536979
 30
0.0
 11
193.0348479117272
 21
51.67571866623439
 31
0.0
  0
LINE
  5
4B0
330
1F
100
AcDbEntity
  8
101
  6
Continuous
 62
     7
370
    30
100
AcDbLine
 10
193.0348479117272
 20
51.67571866623439
 30
0.0
 11
201.647207462289
 21
54.09425799207708
 31
0.0
  0
LINE
  5
4B1
330
1F
100
AcDbEntity
  8
101
  6
Continuous
 62
     7
370
    30
100
AcDbLine
 10
201.647207462289
 20
54.09425799207708
 30
0.0
 11
209.9788498945428
 21
56.81572197092709
 31
0.0
  0
LINE
  5
4B2
330
1F
100
AcDbEntity
  8
101
  6
Continuous
 62
     7
370
    30
100
AcDbLine
 10
190.0336417177459
 20
48.13717227128862
 30
0.0
 11
201.3522636420643
 21
52.14762877859394
 31
0.0
  0
LINE
  5
4B3
330
1F
100
AcDbEntity
  8
101
  6
Continuous
 62
     7
370
    30
100
AcDbLine
 10
201.3522636420643
 20
52.14762877859394
 30
0.0
 11
211.1201688087804
 21
55.65674232327567
 31
0.0
  0
LINE
  5
4B4
330
1F
100
AcDbEntity
  8
101
  6
Continuous
 62
     7
370
    30
100
AcDbLine
 10
182.5938366757721
 20
55.68695462129062
 30
0.0
 11
182.9477692600418
 21
57.04369619432427
 31
0.0
  0
LINE
  5
4B5
330
1F
100
AcDbEntity
  8
101
  6
Continuous
 62
     7
370
    30
100
AcDbLine
 10
182.9477692600418
 20
57.04369619432427
 30
0.0
 11
184.4814771252103
 21
57.81055012690854
 31
0.0
  0
LINE
  5
4B6
330
1F
100
AcDbEntity
  8
101
  6
Continuous
 62
     7
370
    30
100
AcDbLine
 10
184.4814771252103
 20
57.81055012690854
 30
0.0
 11
185.4252973499295
 21
58.51841529544788
 31
0.0
  0
LINE
  5
4B7
330
1F
100
AcDbEntity
  8
101
  6
Continuous
 62
     7
370
    30
100
AcDbLine
 10
185.4252973499295
 20
58.51841529544788
 30
0.0
 11
186.5460838667834
 21
59.16729169994224
 31
0.0
  0
LINE
  5
4B8
330
1F
100
AcDbEntity
  8
101
  6
Continuous
 62
     7
370
    30
100
AcDbLine
 10
186.5460838667834
 20
59.16729169994224
 30
0.0
 11
187.9028254398171
 21
59.87515686848158
 31
0.0
  0
LINE
  5
4B9
330
1F
100
AcDbEntity
  8
101
  6
Continuous
 62
     7
370
    30
100
AcDbLine
 10
187.9028254398171
 20
59.87515686848158
 30
0.0
 11
188.9056344285812
 21
60.34706698084113
 31
0.0
  0
LINE
  5
4BA
330
1F
100
AcDbEntity
  8
101
  6
Continuous
 62
     7
370
    30
100
AcDbLine
 10
188.9056344285812
 20
60.34706698084113
 30
0.0
 11
189.0531063386935
 21
61.14341529544794
 31
0.0
  0
LINE
  5
4BB
330
1F
100
AcDbEntity
  8
101
  6
Continuous
 62
     7
370
    30
100
AcDbLine
 10
182.5938366757721
 20
55.68695462129062
 30
0.0
 11
183.8915894847609
 21
54.68414563252657
 31
0.0
  0
LINE
  5
4BC
330
1F
100
AcDbEntity
  8
101
  6
Continuous
 62
     7
370
    30
100
AcDbLine
 10
183.8915894847609
 20
54.68414563252657
 30
0.0
 11
184.5404658892552
 21
52.97347147522319
 31
0.0
  0
LINE
  5
4BD
330
1F
100
AcDbEntity
  8
101
  6
Continuous
 62
     7
370
    30
100
AcDbLine
 10
183.4196793724014
 20
56.51279731791976
 30
0.0
 11
185.6022636420643
 21
55.21504450893102
 31
0.0
  0
LINE
  5
4BE
330
1F
100
AcDbEntity
  8
101
  6
Continuous
 62
     7
370
    30
100
AcDbLine
 10
185.6022636420643
 20
55.21504450893102
 30
0.0
 11
185.9725654025953
 21
53.32335232975592
 31
0.0
  0
LINE
  5
4BF
330
1F
100
AcDbEntity
  8
101
  6
Continuous
 62
     7
370
    30
100
AcDbLine
 10
184.4814771252103
 20
57.81055012690854
 30
0.0
 11
187.2539490353227
 21
55.98189844151528
 31
0.0
  0
LINE
  5
4C0
330
1F
100
AcDbEntity
  8
101
  6
Continuous
 62
     7
370
    30
100
AcDbLine
 10
187.2539490353227
 20
55.98189844151528
 30
0.0
 11
187.4575349331577
 21
54.28355819162334
 31
0.0
  0
LINE
  5
4C1
330
1F
100
AcDbEntity
  8
101
  6
Continuous
 62
     7
370
    30
100
AcDbLine
 10
185.885703429467
 20
58.78496618360117
 30
0.0
 11
188.6696793724013
 21
56.57178608196472
 31
0.0
  0
LINE
  5
4C2
330
1F
100
AcDbEntity
  8
101
  6
Continuous
 62
     7
370
    30
100
AcDbLine
 10
188.6696793724013
 20
56.57178608196472
 30
0.0
 11
188.9303069465145
 21
55.2358769371022
 31
0.0
  0
LINE
  5
4C3
330
1F
100
AcDbEntity
  8
101
  6
Continuous
 62
     7
370
    30
100
AcDbLine
 10
187.3181968273657
 20
59.5701332445939
 30
0.0
 11
190.08540970948
 21
57.33864001454899
 31
0.0
  0
LINE
  5
4C4
330
1F
100
AcDbEntity
  8
101
  6
Continuous
 62
     7
370
    30
100
AcDbLine
 10
190.08540970948
 20
57.33864001454899
 30
0.0
 11
190.2904864933586
 21
56.11539153130215
 31
0.0
  0
LINE
  5
4C5
330
1F
100
AcDbEntity
  8
101
  6
Continuous
 62
     7
370
    30
100
AcDbLine
 10
188.6045076500855
 20
60.20536026154903
 30
0.0
 11
191.3241737544238
 21
57.98751641904337
 31
0.0
  0
LINE
  5
4C6
330
1F
100
AcDbEntity
  8
101
  6
Continuous
 62
     7
370
    30
100
AcDbLine
 10
191.3241737544238
 20
57.98751641904337
 30
0.0
 11
191.6481639853913
 21
56.99328825547366
 31
0.0
  0
LINE
  5
4C7
330
1F
100
AcDbEntity
  8
101
  6
Continuous
 62
     7
370
    30
100
AcDbLine
 10
191.4226217518988
 20
61.37378484950958
 30
0.0
 11
194.8825613768989
 21
58.80962644592498
 31
0.0
  0
LINE
  5
4C8
330
1F
100
AcDbEntity
  8
101
  6
Continuous
 62
     7
370
    30
100
AcDbLine
 10
192.150016451053
 20
54.33021304825687
 30
0.0
 11
194.2146231926261
 21
52.85549394713325
 31
0.0
  0
LINE
  5
4C9
330
1F
100
AcDbEntity
  8
101
  6
Continuous
 62
     7
370
    30
100
AcDbLine
 10
194.2146231926261
 20
52.85549394713325
 30
0.0
 11
196.2202411701542
 21
53.62234787971752
 31
0.0
  0
LINE
  5
4CA
330
1F
100
AcDbEntity
  8
101
  6
Continuous
 62
     7
370
    30
100
AcDbLine
 10
196.2202411701542
 20
53.62234787971752
 30
0.0
 11
197.0854631833948
 21
57.65518588913699
 31
0.0
  0
LINE
  5
4CB
330
1F
100
AcDbEntity
  8
101
  6
Continuous
 62
     7
370
    30
100
AcDbLine
 10
195.2935396342064
 20
56.64614156046781
 30
0.0
 11
194.2146231926261
 21
52.85549394713325
 31
0.0
  0
LINE
  5
4CC
330
1F
100
AcDbEntity
  8
101
  6
Continuous
 62
     7
370
    30
100
AcDbLine
 10
193.3002973499295
 20
61.55633664376253
 30
0.0
 11
195.6893422937497
 21
59.81616810443663
 31
0.0
  0
LINE
  5
4CD
330
1F
100
AcDbEntity
  8
101
  6
Continuous
 62
     7
370
    30
100
AcDbLine
 10
196.4786713522198
 20
54.82690236985553
 30
0.0
 11
203.1190355552561
 21
54.57501879892149
 31
0.0
  0
LINE
  5
4CE
330
1F
100
AcDbEntity
  8
101
  6
Continuous
 62
     7
370
    30
100
AcDbLine
 10
208.2601236096266
 20
56.25431385578824
 30
0.0
 11
208.3942034966578
 21
58.20633003437717
 31
0.0
  0
LINE
  5
4CF
330
1F
100
AcDbEntity
  8
101
  6
Continuous
 62
     7
370
    30
100
AcDbLine
 10
195.9601191039008
 20
64.77429440114499
 30
0.0
 11
197.6359715072329
 21
66.30493214938046
 31
0.0
  0
LINE
  5
4D0
330
1F
100
AcDbEntity
  8
101
  6
Continuous
 62
     7
370
    30
100
AcDbLine
 10
197.6359715072329
 20
66.30493214938046
 30
0.0
 11
198.461814203862
 21
67.13077484600969
 31
0.0
  0
LINE
  5
4D1
330
1F
100
AcDbEntity
  8
101
  6
Continuous
 62
     7
370
    30
100
AcDbLine
 10
198.461814203862
 20
67.13077484600969
 30
0.0
 11
199.8185557768957
 21
67.18976361005461
 31
0.0
  0
LINE
  5
4D2
330
1F
100
AcDbEntity
  8
101
  6
Continuous
 62
     7
370
    30
100
AcDbLine
 10
199.8185557768957
 20
67.18976361005461
 30
0.0
 11
207.2466751511585
 21
62.48470898220688
 31
0.0
  0
LINE
  5
4D3
330
1F
100
AcDbEntity
  8
101
  6
Continuous
 62
     7
370
    30
100
AcDbLine
 10
198.461814203862
 20
67.13077484600969
 30
0.0
 11
203.3019385427388
 21
63.78115180552109
 31
0.0
  0
LINE
  5
4D4
330
1F
100
AcDbEntity
  8
101
  6
Continuous
 62
     7
370
    30
100
AcDbLine
 10
202.7388801435703
 20
65.33999720432793
 30
0.0
 11
206.4842861139744
 21
66.06897709320067
 31
0.0
  0
LINE
  5
4D5
330
1F
100
AcDbEntity
  8
101
  6
Continuous
 62
     7
370
    30
100
AcDbLine
 10
206.4842861139744
 20
66.06897709320067
 30
0.0
 11
207.0151849903789
 21
65.74453889095348
 31
0.0
  0
LINE
  5
4D6
330
1F
100
AcDbEntity
  8
101
  6
Continuous
 62
     7
370
    30
100
AcDbLine
 10
207.0151849903789
 20
65.74453889095348
 30
0.0
 11
206.4787571157174
 21
62.97111693076232
 31
0.0
  0
LINE
  5
4D7
330
1F
100
AcDbEntity
  8
101
  6
Continuous
 62
     7
370
    30
100
AcDbLine
 10
206.4787571157174
 20
62.97111693076232
 30
0.0
 11
208.9323198218395
 21
63.41448271117821
 31
0.0
  0
LINE
  5
4D8
330
1F
100
AcDbEntity
  8
101
  6
Continuous
 62
     7
370
    30
100
AcDbLine
 10
208.9323198218395
 20
63.41448271117821
 30
0.0
 11
211.7047917319519
 21
63.14903327297597
 31
0.0
  0
LINE
  5
4D9
330
1F
100
AcDbEntity
  8
101
  6
Continuous
 62
     7
370
    30
100
AcDbLine
 10
211.7047917319519
 20
63.14903327297597
 30
0.0
 11
215.2441175746485
 21
62.32319057634675
 31
0.0
  0
LINE
  5
4DA
330
1F
100
AcDbEntity
  8
101
  6
Continuous
 62
     7
370
    30
100
AcDbLine
 10
215.2441175746485
 20
62.32319057634675
 30
0.0
 11
218.8424321813901
 21
60.84847147522316
 31
0.0
  0
LINE
  5
4DB
330
1F
100
AcDbEntity
  8
101
  6
Continuous
 62
     7
370
    30
100
AcDbLine
 10
218.8424321813901
 20
60.84847147522316
 30
0.0
 11
221.58540970948
 21
59.01981978982991
 31
0.0
  0
LINE
  5
4DC
330
1F
100
AcDbEntity
  8
101
  6
Continuous
 62
     7
370
    30
100
AcDbLine
 10
221.58540970948
 20
59.01981978982991
 30
0.0
 11
223.0306344285811
 21
57.63358383477373
 31
0.0
  0
LINE
  5
4DD
330
1F
100
AcDbEntity
  8
101
  6
Continuous
 62
     7
370
    30
100
AcDbLine
 10
213.2204690692426
 20
58.29013990854946
 30
0.0
 11
216.2469265634125
 21
59.22628046398719
 31
0.0
  0
LINE
  5
4DE
330
1F
100
AcDbEntity
  8
101
  6
Continuous
 62
     7
370
    30
100
AcDbLine
 10
210.5689252913323
 20
60.85138288682492
 30
0.0
 11
213.4744546533002
 21
60.31757259881866
 31
0.0
  0
LINE
  5
4DF
330
1F
100
AcDbEntity
  8
101
  6
Continuous
 62
     7
370
    30
100
AcDbLine
 10
213.4744546533002
 20
60.31757259881866
 30
0.0
 11
216.2469265634125
 21
59.22628046398719
 31
0.0
  0
LINE
  5
4E0
330
1F
100
AcDbEntity
  8
101
  6
Continuous
 62
     7
370
    30
100
AcDbLine
 10
216.2469265634125
 20
59.22628046398719
 30
0.0
 11
219.4323198218395
 21
57.4566175426389
 31
0.0
  0
LINE
  5
4E1
330
1F
100
AcDbEntity
  8
101
  6
Continuous
 62
     7
370
    30
100
AcDbLine
 10
219.4323198218395
 20
57.4566175426389
 30
0.0
 11
220.0222074622889
 21
56.48330293589731
 31
0.0
  0
LINE
  5
4E2
330
1F
100
AcDbEntity
  8
101
  6
Continuous
 62
     7
370
    30
100
AcDbLine
 10
213.9260207712819
 20
56.41243704218672
 30
0.0
 11
218.400572948827
 21
58.02981024986806
 31
0.0
  0
LINE
  5
4E3
330
1F
100
AcDbEntity
  8
101
  6
Continuous
 62
     7
370
    30
100
AcDbLine
 10
214.1978497568541
 20
55.11602188022712
 30
0.0
 11
220.0222074622889
 21
56.48330293589731
 31
0.0
  0
LINE
  5
4E4
330
1F
100
AcDbEntity
  8
101
  6
Continuous
 62
     7
370
    30
100
AcDbLine
 10
219.6319741001455
 20
60.3221101960529
 30
0.0
 11
223.0306344285811
 21
61.1139209134254
 31
0.0
  0
LINE
  5
4E5
330
1F
100
AcDbEntity
  8
101
  6
Continuous
 62
     7
370
    30
100
AcDbLine
 10
223.0306344285811
 20
61.1139209134254
 30
0.0
 11
226.216027687008
 21
61.23189844151528
 31
0.0
  0
LINE
  5
4E6
330
1F
100
AcDbEntity
  8
101
  6
Continuous
 62
     7
370
    30
100
AcDbLine
 10
226.216027687008
 20
61.23189844151528
 30
0.0
 11
227.5432748780193
 21
60.87796585724564
 31
0.0
  0
LINE
  5
4E7
330
1F
100
AcDbEntity
  8
101
  6
Continuous
 62
     7
370
    30
100
AcDbLine
 10
227.5432748780193
 20
60.87796585724564
 30
0.0
 11
228.1921512825137
 21
59.49172990218946
 31
0.0
  0
LINE
  5
4E8
330
1F
100
AcDbEntity
  8
101
  6
Continuous
 62
     7
370
    30
100
AcDbLine
 10
228.1921512825137
 20
59.49172990218946
 30
0.0
 11
228.1331625184689
 21
58.78386473365012
 31
0.0
  0
LINE
  5
4E9
330
1F
100
AcDbEntity
  8
101
  6
Continuous
 62
     7
370
    30
100
AcDbLine
 10
228.1331625184689
 20
58.78386473365012
 30
0.0
 11
226.4814771252103
 21
56.89622428421191
 31
0.0
  0
LINE
  5
4EA
330
1F
100
AcDbEntity
  8
101
  6
Continuous
 62
     7
370
    30
100
AcDbLine
 10
226.4814771252103
 20
56.89622428421191
 30
0.0
 11
222.8241737544238
 21
54.97908945275125
 31
0.0
  0
LINE
  5
4EB
330
1F
100
AcDbEntity
  8
101
  6
Continuous
 62
     7
370
    30
100
AcDbLine
 10
222.8241737544238
 20
54.97908945275125
 30
0.0
 11
218.3115333049856
 21
53.50437035162764
 31
0.0
  0
LINE
  5
4EC
330
1F
100
AcDbEntity
  8
101
  6
Continuous
 62
     7
370
    30
100
AcDbLine
 10
218.3115333049856
 20
53.50437035162764
 30
0.0
 11
214.0075054803244
 21
52.33953213973589
 31
0.0
  0
LINE
  5
4ED
330
1F
100
AcDbEntity
  8
101
  6
Continuous
 62
     7
370
    30
100
AcDbLine
 10
215.9003773133431
 20
55.51569404881178
 30
0.0
 11
217.1022636420642
 21
55.39201080106585
 31
0.0
  0
LINE
  5
4EE
330
1F
100
AcDbEntity
  8
101
  6
Continuous
 62
     7
370
    30
100
AcDbLine
 10
217.1022636420642
 20
55.39201080106585
 30
0.0
 11
220.0222074622889
 21
56.48330293589731
 31
0.0
  0
LINE
  5
4EF
330
1F
100
AcDbEntity
  8
101
  6
Continuous
 62
     7
370
    30
100
AcDbLine
 10
220.0222074622889
 20
56.48330293589731
 30
0.0
 11
223.0306344285811
 21
57.63358383477373
 31
0.0
  0
LINE
  5
4F0
330
1F
100
AcDbEntity
  8
101
  6
Continuous
 62
     7
370
    30
100
AcDbLine
 10
221.58540970948
 20
59.01981978982991
 30
0.0
 11
224.2399040915024
 21
59.10830293589731
 31
0.0
  0
LINE
  5
4F1
330
1F
100
AcDbEntity
  8
101
  6
Continuous
 62
     7
370
    30
100
AcDbLine
 10
224.2399040915024
 20
59.10830293589731
 30
0.0
 11
225.1542299341991
 21
58.99032540780743
 31
0.0
  0
LINE
  5
4F2
330
1F
100
AcDbEntity
  8
101
  6
Continuous
 62
     7
370
    30
100
AcDbLine
 10
228.1331625184689
 20
58.78386473365012
 30
0.0
 11
228.7820389229631
 21
57.69257259881866
 31
0.0
  0
LINE
  5
4F3
330
1F
100
AcDbEntity
  8
101
  6
Continuous
 62
     7
370
    30
100
AcDbLine
 10
228.7820389229631
 20
57.69257259881866
 30
0.0
 11
227.4547917319519
 21
55.83442653140293
 31
0.0
  0
LINE
  5
4F4
330
1F
100
AcDbEntity
  8
101
  6
Continuous
 62
     7
370
    30
100
AcDbLine
 10
227.4547917319519
 20
55.83442653140293
 30
0.0
 11
224.151420945435
 21
54.09425799207708
 31
0.0
  0
LINE
  5
4F5
330
1F
100
AcDbEntity
  8
101
  6
Continuous
 62
     7
370
    30
100
AcDbLine
 10
224.151420945435
 20
54.09425799207708
 30
0.0
 11
218.400016451053
 21
51.73470743027934
 31
0.0
  0
LINE
  5
4F6
330
1F
100
AcDbEntity
  8
101
  6
Continuous
 62
     7
370
    30
100
AcDbLine
 10
218.400016451053
 20
51.73470743027934
 30
0.0
 11
213.5334434173452
 21
50.34847147522319
 31
0.0
  0
LINE
  5
4F7
330
1F
100
AcDbEntity
  8
101
  6
Continuous
 62
     7
370
    30
100
AcDbLine
 10
219.2654782190877
 20
52.08976866844742
 30
0.0
 11
223.1781063386934
 21
51.82319057634675
 31
0.0
  0
LINE
  5
4F8
330
1F
100
AcDbEntity
  8
101
  6
Continuous
 62
     7
370
    30
100
AcDbLine
 10
222.6767018443114
 20
53.12094338533552
 30
0.0
 11
223.3255782488058
 21
51.58723552016698
 31
0.0
  0
LINE
  5
4F9
330
1F
100
AcDbEntity
  8
101
  6
Continuous
 62
     7
370
    30
100
AcDbLine
 10
223.3255782488058
 20
51.58723552016698
 30
0.0
 11
223.030634428581
 21
49.22768495836922
 31
0.0
  0
LINE
  5
4FA
330
1F
100
AcDbEntity
  8
101
  6
Continuous
 62
     7
370
    30
100
AcDbLine
 10
223.8564771252103
 20
53.62234787971755
 30
0.0
 11
224.5053535297046
 21
51.67571866623439
 31
0.0
  0
LINE
  5
4FB
330
1F
100
AcDbEntity
  8
101
  6
Continuous
 62
     7
370
    30
100
AcDbLine
 10
224.5053535297046
 20
51.67571866623439
 30
0.0
 11
224.5053535297046
 21
49.52262877859394
 31
0.0
  0
LINE
  5
4FC
330
1F
100
AcDbEntity
  8
101
  6
Continuous
 62
     7
370
    30
100
AcDbLine
 10
225.7593018898862
 20
54.94126670388621
 30
0.0
 11
225.8620951027384
 21
50.08302203702092
 31
0.0
  0
LINE
  5
4FD
330
1F
100
AcDbEntity
  8
101
  6
Continuous
 62
     7
370
    30
100
AcDbLine
 10
225.7654359263562
 20
54.65135797217673
 30
0.0
 11
227.3958029679069
 21
54.03526922803215
 31
0.0
  0
LINE
  5
4FE
330
1F
100
AcDbEntity
  8
101
  6
Continuous
 62
     7
370
    30
100
AcDbLine
 10
227.3958029679069
 20
54.03526922803215
 30
0.0
 11
229.0474883611653
 21
52.70802203702092
 31
0.0
  0
LINE
  5
4FF
330
1F
100
AcDbEntity
  8
101
  6
Continuous
 62
     7
370
    30
100
AcDbLine
 10
229.0474883611653
 20
52.70802203702092
 30
0.0
 11
229.2539490353226
 21
51.05633664376248
 31
0.0
  0
LINE
  5
500
330
1F
100
AcDbEntity
  8
101
  6
Continuous
 62
     7
370
    30
100
AcDbLine
 10
229.2539490353226
 20
51.05633664376248
 30
0.0
 11
229.1064771252103
 21
49.43414563252654
 31
0.0
  0
LINE
  5
501
330
1F
100
AcDbEntity
  8
101
  6
Continuous
 62
     7
370
    30
100
AcDbLine
 10
229.1064771252103
 20
49.43414563252654
 30
0.0
 11
228.3691175746485
 21
47.78246023926809
 31
0.0
  0
LINE
  5
502
330
1F
100
AcDbEntity
  8
101
  6
Continuous
 62
     7
370
    30
100
AcDbLine
 10
228.3691175746485
 20
47.78246023926809
 30
0.0
 11
226.0390613948732
 21
46.16026922803215
 31
0.0
  0
LINE
  5
503
330
1F
100
AcDbEntity
  8
101
  6
Continuous
 62
     7
370
    30
100
AcDbLine
 10
226.0390613948732
 20
46.16026922803215
 30
0.0
 11
222.2047917319518
 21
45.00998832915574
 31
0.0
  0
LINE
  5
504
330
1F
100
AcDbEntity
  8
101
  6
Continuous
 62
     7
370
    30
100
AcDbLine
 10
222.2047917319518
 20
45.00998832915574
 30
0.0
 11
216.4828816195923
 21
44.42010068870631
 31
0.0
  0
LINE
  5
505
330
1F
100
AcDbEntity
  8
101
  6
Continuous
 62
     7
370
    30
100
AcDbLine
 10
216.4828816195923
 20
44.42010068870631
 30
0.0
 11
209.2862524061092
 21
44.36111192466137
 31
0.0
  0
LINE
  5
506
330
1F
100
AcDbEntity
  8
101
  6
Continuous
 62
     7
370
    30
100
AcDbLine
 10
209.2862524061092
 20
44.36111192466137
 30
0.0
 11
207.1201200486202
 21
44.36722727359446
 31
0.0
  0
LINE
  5
507
330
1F
100
AcDbEntity
  8
101
  6
Continuous
 62
     7
370
    30
100
AcDbLine
 10
205.3929939791429
 20
43.15184226174006
 30
0.0
 11
213.5629377993675
 21
42.94538158758269
 31
0.0
  0
LINE
  5
508
330
1F
100
AcDbEntity
  8
101
  6
Continuous
 62
     7
370
    30
100
AcDbLine
 10
213.5629377993675
 20
42.94538158758269
 30
0.0
 11
219.3733310577945
 21
43.24032540780741
 31
0.0
  0
LINE
  5
509
330
1F
100
AcDbEntity
  8
101
  6
Continuous
 62
     7
370
    30
100
AcDbLine
 10
219.3733310577945
 20
43.24032540780741
 30
0.0
 11
222.8241737544237
 21
44.03667372241416
 31
0.0
  0
LINE
  5
50A
330
1F
100
AcDbEntity
  8
101
  6
Continuous
 62
     7
370
    30
100
AcDbLine
 10
222.8241737544237
 20
44.03667372241416
 30
0.0
 11
223.7282171520116
 21
45.46701595517369
 31
0.0
  0
LINE
  5
50B
330
1F
100
AcDbEntity
  8
101
  6
Continuous
 62
     7
370
    30
100
AcDbLine
 10
229.175861450132
 20
50.19737320666542
 30
0.0
 11
227.3663085858844
 21
48.72628046398719
 31
0.0
  0
LINE
  5
50C
330
1F
100
AcDbEntity
  8
101
  6
Continuous
 62
     7
370
    30
100
AcDbLine
 10
227.3663085858844
 20
48.72628046398719
 30
0.0
 11
224.6823198218394
 21
47.22206698084113
 31
0.0
  0
LINE
  5
50D
330
1F
100
AcDbEntity
  8
101
  6
Continuous
 62
     7
370
    30
100
AcDbLine
 10
224.6823198218394
 20
47.22206698084113
 30
0.0
 11
219.6092861139743
 21
46.18976361005463
 31
0.0
  0
LINE
  5
50E
330
1F
100
AcDbEntity
  8
101
  6
Continuous
 62
     7
370
    30
100
AcDbLine
 10
219.6092861139743
 20
46.18976361005463
 30
0.0
 11
213.7988928555473
 21
45.95380855387484
 31
0.0
  0
LINE
  5
50F
330
1F
100
AcDbEntity
  8
101
  6
Continuous
 62
     7
370
    30
100
AcDbLine
 10
213.7988928555473
 20
45.95380855387484
 30
0.0
 11
209.4280689714117
 21
45.99133947852177
 31
0.0
  0
LINE
  5
510
330
1F
100
AcDbEntity
  8
101
  6
Continuous
 62
     7
370
    30
100
AcDbLine
 10
212.0278217143678
 20
48.03985153065781
 30
0.0
 11
216.6893422937495
 21
48.22487596960519
 31
0.0
  0
LINE
  5
511
330
1F
100
AcDbEntity
  8
101
  6
Continuous
 62
     7
370
    30
100
AcDbLine
 10
216.6893422937495
 20
48.22487596960519
 30
0.0
 11
221.0840052150979
 21
48.72628046398719
 31
0.0
  0
LINE
  5
512
330
1F
100
AcDbEntity
  8
101
  6
Continuous
 62
     7
370
    30
100
AcDbLine
 10
221.0840052150979
 20
48.72628046398719
 30
0.0
 11
223.030634428581
 21
49.22768495836922
 31
0.0
  0
LINE
  5
513
330
1F
100
AcDbEntity
  8
101
  6
Continuous
 62
     7
370
    30
100
AcDbLine
 10
223.030634428581
 20
49.22768495836922
 30
0.0
 11
224.5053535297046
 21
49.52262877859394
 31
0.0
  0
LINE
  5
514
330
1F
100
AcDbEntity
  8
101
  6
Continuous
 62
     7
370
    30
100
AcDbLine
 10
224.5053535297046
 20
49.52262877859394
 30
0.0
 11
225.8620951027384
 21
50.08302203702092
 31
0.0
  0
LINE
  5
515
330
1F
100
AcDbEntity
  8
101
  6
Continuous
 62
     7
370
    30
100
AcDbLine
 10
225.8620951027384
 20
50.08302203702092
 30
0.0
 11
226.5404658892552
 21
50.84987596960519
 31
0.0
  0
LINE
  5
516
330
1F
100
AcDbEntity
  8
101
  6
Continuous
 62
     7
370
    30
100
AcDbLine
 10
226.5404658892552
 20
50.84987596960519
 30
0.0
 11
225.8365334074974
 21
51.2911267954434
 31
0.0
  0
LINE
  5
517
330
1F
100
AcDbEntity
  8
101
  6
Continuous
 62
     7
370
    30
100
AcDbLine
 10
76.63389309118762
 20
25.54622141662031
 30
0.0
 11
85.28875241943207
 21
25.10800069113959
 31
0.0
  0
LINE
  5
518
330
1F
100
AcDbEntity
  8
101
  6
Continuous
 62
     7
370
    30
100
AcDbLine
 10
91.66270380937694
 20
24.98733910016253
 30
0.0
 11
95.4975294548239
 21
24.92122141662034
 31
0.0
  0
LINE
  5
519
330
1F
100
AcDbEntity
  8
101
  6
Continuous
 62
     7
370
    30
100
AcDbLine
 10
95.4975294548239
 20
24.92122141662034
 30
0.0
 11
95.93934229374959
 21
24.95362102480823
 31
0.0
  0
LINE
  5
51A
330
1F
100
AcDbEntity
  8
101
  6
Continuous
 62
     7
370
    30
100
AcDbLine
 10
98.0671019345636
 20
25.10965673180124
 30
0.0
 11
104.0202567275511
 21
25.54622141662031
 31
0.0
  0
LINE
  5
51B
330
1F
100
AcDbEntity
  8
101
  6
Continuous
 62
     7
370
    30
100
AcDbLine
 10
104.0202567275511
 20
25.54622141662031
 30
0.0
 11
105.87853143256
 21
25.85109461041083
 31
0.0
  0
LINE
  5
51C
330
1F
100
AcDbEntity
  8
101
  6
Continuous
 62
     7
370
    30
100
AcDbLine
 10
112.0622777298328
 20
26.90827259007017
 30
0.0
 11
118.2816203639147
 21
28.27349414389303
 31
0.0
  0
LINE
  5
51D
330
1F
100
AcDbEntity
  8
101
  6
Continuous
 62
     7
370
    30
100
AcDbLine
 10
130.8384385457328
 20
32.76213050752938
 30
0.0
 11
132.0351164334231
 21
33.37471561670417
 31
0.0
  0
LINE
  5
51E
330
1F
100
AcDbEntity
  8
101
  6
Continuous
 62
     7
370
    30
100
AcDbLine
 10
141.6648181484989
 20
39.08769448705328
 30
0.0
 11
142.9407112730055
 21
40.09167596207479
 31
0.0
  0
LINE
  5
51F
330
1F
100
AcDbEntity
  8
101
  6
Continuous
 62
     7
370
    30
100
AcDbLine
 10
147.9407112730054
 20
46.68258505298385
 30
0.0
 11
148.1614650069142
 21
48.48015117195547
 31
0.0
  0
LINE
  5
520
330
1F
100
AcDbEntity
  8
101
  6
Continuous
 62
     7
370
    30
100
AcDbLine
 10
148.5192047197522
 20
52.4519478528937
 30
0.0
 11
148.6225294548236
 21
53.89849414389289
 31
0.0
  0
MTEXT
  5
521
330
1F
100
AcDbEntity
  8
101
  6
Continuous
 62
     7
370
     9
100
AcDbMText
 10
6.441682791411097
 20
248.3282208588957
 30
0.0
 40
25.0
 41
217.5698899897461
 46
25.0
 71
     7
 72
     1
  1
{\fＭＳ ゴシック;\W0.714286;[白熱ランプ付]}
 73
     1
 44
1.0
  0
MTEXT
  5
522
330
1F
100
AcDbEntity
  8
101
  6
Continuous
 62
     7
370
     9
100
AcDbMText
 10
-31.60280573619622
 20
-53.14417177914112
 30
0.0
 40
25.0
 41
293.4182016041797
 46
25.0
 71
     7
 72
     1
  1
{\fＭＳ ゴシック;\W0.714286;松本船舶電機製作所}
 73
     1
 44
1.0
  0
MTEXT
  5
523
330
1F
100
AcDbEntity
  8
101
  6
DOT
 62
     7
370
     9
100
AcDbMText
 10
28.90604850906158
 20
311.8454857171869
 30
0.0
 40
25.0
 41
119.9335944819307
 46
25.0
 71
     7
 72
     1
  1
{\fＭＳ ゴシック;\W0.714286;（1-RM-G）}
 11
0.9999933153597601
 21
-0.003656396558838091
 31
0.0
 73
     1
 44
1.0
  0
MTEXT
  5
524
330
1F
100
AcDbEntity
  8
101
  6
Continuous
 62
     7
370
     9
100
AcDbMText
 10
-55.52316030532165
 20
281.7826944951464
 30
0.0
 40
25.0
 41
383.0826261246092
 46
25.0
 71
     7
 72
     1
  1
{\fＭＳ ゴシック;\W0.714286;１型ルームライトゴールド}
 11
0.9999975981888294
 21
0.002191715440607276
 31
0.0
 73
     1
 44
1.0
  0
ENDSEC
  0
SECTION
  2
OBJECTS
  0
DICTIONARY
  5
C
330
0
100
AcDbDictionary
281
     1
  3
ACAD_DETAILVIEWSTYLE
350
52C
  3
ACAD_GROUP
350
D
  3
ACAD_LAYOUT
350
1A
  3
ACAD_MATERIAL
350
43
  3
ACAD_MLEADERSTYLE
350
6B
  3
ACAD_MLINESTYLE
350
17
  3
ACAD_PLOTSETTINGS
350
19
  3
ACAD_PLOTSTYLENAME
350
E
  3
ACAD_SCALELIST
350
47
  3
ACAD_SECTIONVIEWSTYLE
350
52D
  3
ACAD_TABLESTYLE
350
69
  3
ACAD_VISUALSTYLE
350
2A
  3
ACDB_RECOMPOSE_DATA
350
529
  3
AcDbVariableDictionary
350
525
  0
SUN
  5
6D
330
29
100
AcDbSun
 90
        1
290
     0
 63
     7
421
 16777215
 40
1.0
291
     1
 91
  2455826
 92
 54000000
292
     0
 70
     2
 71
   256
280
     1
  0
DICTIONARY
  5
52C
102
{ACAD_REACTORS
330
C
102
}
330
C
100
AcDbDictionary
281
     1
  0
DICTIONARY
  5
D
102
{ACAD_REACTORS
330
C
102
}
330
C
100
AcDbDictionary
281
     1
  0
DICTIONARY
  5
1A
102
{ACAD_REACTORS
330
C
102
}
330
C
100
AcDbDictionary
281
     1
  3
Layout1
350
1E
  3
Layout2
350
26
  3
Model
350
22
  0
DICTIONARY
  5
43
102
{ACAD_REACTORS
330
C
102
}
330
C
100
AcDbDictionary
281
     1
  3
ByBlock
350
45
  3
ByLayer
350
44
  3
Global
350
46
  0
DICTIONARY
  5
6B
102
{ACAD_REACTORS
330
C
102
}
330
C
100
AcDbDictionary
281
     1
  3
Standard
350
6C
  0
DICTIONARY
  5
17
102
{ACAD_REACTORS
330
C
102
}
330
C
100
AcDbDictionary
281
     1
  3
Standard
350
18
  0
DICTIONARY
  5
19
102
{ACAD_REACTORS
330
C
102
}
330
C
100
AcDbDictionary
281
     1
  0
ACDBDICTIONARYWDFLT
  5
E
102
{ACAD_REACTORS
330
C
102
}
330
C
100
AcDbDictionary
281
     1
  3
Normal
350
F
100
AcDbDictionaryWithDefault
340
F
  0
DICTIONARY
  5
47
102
{ACAD_REACTORS
330
C
102
}
330
C
100
AcDbDictionary
281
     1
  3
A0
350
48
  3
A1
350
49
  3
A2
350
4A
  3
A3
350
4B
  3
A4
350
4C
  3
A5
350
4D
  3
A6
350
4E
  3
A7
350
4F
  3
A8
350
50
  3
A9
350
51
  3
B0
350
52
  3
B1
350
53
  3
B2
350
54
  3
B3
350
55
  3
B4
350
56
  3
B5
350
57
  3
B6
350
58
  3
B7
350
59
  3
B8
350
5A
  3
B9
350
5B
  3
C0
350
5C
  3
C1
350
5D
  3
C2
350
5E
  3
C3
350
5F
  3
C4
350
60
  3
C5
350
61
  3
C6
350
62
  3
C7
350
63
  3
C8
350
64
  3
C9
350
65
  3
D0
350
66
  3
D1
350
67
  3
D2
350
68
  0
DICTIONARY
  5
52D
102
{ACAD_REACTORS
330
C
102
}
330
C
100
AcDbDictionary
281
     1
  0
DICTIONARY
  5
69
102
{ACAD_REACTORS
330
C
102
}
330
C
100
AcDbDictionary
281
     1
  3
Standard
350
6A
  0
DICTIONARY
  5
2A
102
{ACAD_REACTORS
330
C
102
}
330
C
100
AcDbDictionary
281
     1
  3
2dWireframe
350
2F
  3
Basic
350
32
  3
Brighten
350
36
  3
ColorChange
350
3A
  3
Conceptual
350
34
  3
Dim
350
35
  3
EdgeColorOff
350
3D
  3
Facepattern
350
39
  3
Flat
350
2B
  3
FlatWithEdges
350
2C
  3
Gouraud
350
2D
  3
GouraudWithEdges
350
2E
  3
Hidden
350
31
  3
JitterOff
350
3B
  3
Linepattern
350
38
  3
OverhangOff
350
3C
  3
Realistic
350
33
  3
Shaded
350
42
  3
Shaded with edges
350
41
  3
Shades of Gray
350
3E
  3
Sketchy
350
3F
  3
Thicken
350
37
  3
Wireframe
350
30
  3
X-Ray
350
40
  0
XRECORD
  5
529
102
{ACAD_REACTORS
330
C
102
}
330
C
100
AcDbXrecord
280
     1
 90
        1
330
6A
  0
DICTIONARY
  5
525
102
{ACAD_REACTORS
330
C
102
}
330
C
100
AcDbDictionary
281
     1
  3
CANNOSCALE
350
526
  3
CMLEADERSTYLE
350
52B
  3
CTABLESTYLE
350
52A
  0
LAYOUT
  5
1E
102
{ACAD_REACTORS
330
1A
102
}
330
1A
100
AcDbPlotSettings
  1

  2
none_device
  4

  6

 40
0.0
 41
0.0
 42
0.0
 43
0.0
 44
0.0
 45
0.0
 46
0.0
 47
0.0
 48
0.0
 49
0.0
140
0.0
141
0.0
142
1.0
143
1.0
 70
   688
 72
     0
 73
     0
 74
     5
  7

 75
    16
 76
     0
 77
     2
 78
   300
147
1.0
148
0.0
149
0.0
100
AcDbLayout
  1
Layout1
 70
     1
 71
     1
 10
0.0
 20
0.0
 11
297.0
 21
210.0
 12
0.0
 22
0.0
 32
0.0
 14
0.0
 24
0.0
 34
0.0
 15
297.0
 25
210.0
 35
0.0
146
0.0
 13
0.0
 23
0.0
 33
0.0
 16
1.0
 26
0.0
 36
0.0
 17
0.0
 27
1.0
 37
0.0
 76
     0
330
1B
  0
LAYOUT
  5
26
102
{ACAD_REACTORS
330
1A
102
}
330
1A
100
AcDbPlotSettings
  1

  2
none_device
  4

  6

 40
0.0
 41
0.0
 42
0.0
 43
0.0
 44
0.0
 45
0.0
 46
0.0
 47
0.0
 48
0.0
 49
0.0
140
0.0
141
0.0
142
1.0
143
1.0
 70
   688
 72
     0
 73
     0
 74
     5
  7

 75
    16
 76
     0
 77
     2
 78
   300
147
1.0
148
0.0
149
0.0
100
AcDbLayout
  1
Layout2
 70
     1
 71
     2
 10
0.0
 20
0.0
 11
0.0
 21
0.0
 12
0.0
 22
0.0
 32
0.0
 14
0.0
 24
0.0
 34
0.0
 15
0.0
 25
0.0
 35
0.0
146
0.0
 13
0.0
 23
0.0
 33
0.0
 16
1.0
 26
0.0
 36
0.0
 17
0.0
 27
1.0
 37
0.0
 76
     0
330
23
  0
LAYOUT
  5
22
102
{ACAD_REACTORS
330
1A
102
}
330
1A
100
AcDbPlotSettings
  1

  2
none_device
  4
Letter_(8.50_x_11.00_Inches)
  6

 40
6.35
 41
6.35
 42
6.35000508
 43
6.35000508
 44
215.9
 45
279.4
 46
0.0
 47
0.0
 48
0.0
 49
0.0
140
0.0
141
0.0
142
1.0
143
1.0
 70
  1712
 72
     0
 73
     0
 74
     0
  7

 75
     0
 76
     0
 77
     2
 78
   300
147
1.0
148
0.0
149
0.0
100
AcDbLayout
  1
Model
 70
     1
 71
     0
 10
0.0
 20
0.0
 11
297.0
 21
210.0
 12
0.0
 22
0.0
 32
0.0
 14
-55.57795319133683
 24
-53.14417177914112
 34
0.0
 15
244.476239151039
 25
336.8453186011809
 35
0.0
146
0.0
 13
0.0
 23
0.0
 33
0.0
 16
1.0
 26
0.0
 36
0.0
 17
0.0
 27
1.0
 37
0.0
 76
     0
330
1F
331
29
  0
MATERIAL
  5
45
102
{ACAD_REACTORS
330
43
102
}
330
43
100
AcDbMaterial
  1
ByBlock
 72
     1
 94
      127
  0
MATERIAL
  5
44
102
{ACAD_REACTORS
330
43
102
}
330
43
100
AcDbMaterial
  1
ByLayer
 72
     1
 94
      127
  0
MATERIAL
  5
46
102
{ACAD_REACTORS
330
43
102
}
330
43
100
AcDbMaterial
  1
Global
 72
     1
 94
      127
  0
MLEADERSTYLE
  5
6C
102
{ACAD_REACTORS
330
6B
102
}
330
6B
100
AcDbMLeaderStyle
179
     2
170
     2
171
     1
172
     0
 90
        2
 40
0.0
 41
0.0
173
     1
 91
-1056964608
340
14
 92
       -2
290
     1
 42
0.09
291
     1
 43
0.36
  3
Standard
341
0
 44
0.18
300

342
11
174
     1
178
     6
175
     1
176
     0
 93
-1056964608
 45
0.18
292
     0
297
     0
 46
0.18
343
0
 94
-1056964608
 47
1.0
 49
1.0
140
1.0
293
     1
141
0.0
294
     1
177
     0
142
1.0
295
     0
296
     0
143
0.125
271
     0
272
     9
273
     9
298
     0
  0
MLINESTYLE
  5
18
102
{ACAD_REACTORS
330
17
102
}
330
17
100
AcDbMlineStyle
  2
Standard
 70
     0
  3

 62
   256
 51
90.0
 52
90.0
 71
     2
 49
0.5
 62
   256
  6
BYLAYER
 49
-0.5
 62
   256
  6
BYLAYER
  0
ACDBPLACEHOLDER
  5
F
102
{ACAD_REACTORS
330
E
102
}
330
E
  0
SCALE
  5
48
102
{ACAD_REACTORS
330
47
102
}
330
47
100
AcDbScale
 70
     0
300
1:1
140
1.0
141
1.0
290
     1
  0
SCALE
  5
49
102
{ACAD_REACTORS
330
47
102
}
330
47
100
AcDbScale
 70
     0
300
1:2
140
1.0
141
2.0
290
     0
  0
SCALE
  5
4A
102
{ACAD_REACTORS
330
47
102
}
330
47
100
AcDbScale
 70
     0
300
1:4
140
1.0
141
4.0
290
     0
  0
SCALE
  5
4B
102
{ACAD_REACTORS
330
47
102
}
330
47
100
AcDbScale
 70
     0
300
1:5
140
1.0
141
5.0
290
     0
  0
SCALE
  5
4C
102
{ACAD_REACTORS
330
47
102
}
330
47
100
AcDbScale
 70
     0
300
1:8
140
1.0
141
8.0
290
     0
  0
SCALE
  5
4D
102
{ACAD_REACTORS
330
47
102
}
330
47
100
AcDbScale
 70
     0
300
1:10
140
1.0
141
10.0
290
     0
  0
SCALE
  5
4E
102
{ACAD_REACTORS
330
47
102
}
330
47
100
AcDbScale
 70
     0
300
1:16
140
1.0
141
16.0
290
     0
  0
SCALE
  5
4F
102
{ACAD_REACTORS
330
47
102
}
330
47
100
AcDbScale
 70
     0
300
1:20
140
1.0
141
20.0
290
     0
  0
SCALE
  5
50
102
{ACAD_REACTORS
330
47
102
}
330
47
100
AcDbScale
 70
     0
300
1:30
140
1.0
141
30.0
290
     0
  0
SCALE
  5
51
102
{ACAD_REACTORS
330
47
102
}
330
47
100
AcDbScale
 70
     0
300
1:40
140
1.0
141
40.0
290
     0
  0
SCALE
  5
52
102
{ACAD_REACTORS
330
47
102
}
330
47
100
AcDbScale
 70
     0
300
1:50
140
1.0
141
50.0
290
     0
  0
SCALE
  5
53
102
{ACAD_REACTORS
330
47
102
}
330
47
100
AcDbScale
 70
     0
300
1:100
140
1.0
141
100.0
290
     0
  0
SCALE
  5
54
102
{ACAD_REACTORS
330
47
102
}
330
47
100
AcDbScale
 70
     0
300
2:1
140
2.0
141
1.0
290
     0
  0
SCALE
  5
55
102
{ACAD_REACTORS
330
47
102
}
330
47
100
AcDbScale
 70
     0
300
4:1
140
4.0
141
1.0
290
     0
  0
SCALE
  5
56
102
{ACAD_REACTORS
330
47
102
}
330
47
100
AcDbScale
 70
     0
300
8:1
140
8.0
141
1.0
290
     0
  0
SCALE
  5
57
102
{ACAD_REACTORS
330
47
102
}
330
47
100
AcDbScale
 70
     0
300
10:1
140
10.0
141
1.0
290
     0
  0
SCALE
  5
58
102
{ACAD_REACTORS
330
47
102
}
330
47
100
AcDbScale
 70
     0
300
100:1
140
100.0
141
1.0
290
     0
  0
SCALE
  5
59
102
{ACAD_REACTORS
330
47
102
}
330
47
100
AcDbScale
 70
     0
300
1/128" = 1'-0"
140
0.0078125
141
12.0
290
     0
  0
SCALE
  5
5A
102
{ACAD_REACTORS
330
47
102
}
330
47
100
AcDbScale
 70
     0
300
1/64" = 1'-0"
140
0.015625
141
12.0
290
     0
  0
SCALE
  5
5B
102
{ACAD_REACTORS
330
47
102
}
330
47
100
AcDbScale
 70
     0
300
1/32" = 1'-0"
140
0.03125
141
12.0
290
     0
  0
SCALE
  5
5C
102
{ACAD_REACTORS
330
47
102
}
330
47
100
AcDbScale
 70
     0
300
1/16" = 1'-0"
140
0.0625
141
12.0
290
     0
  0
SCALE
  5
5D
102
{ACAD_REACTORS
330
47
102
}
330
47
100
AcDbScale
 70
     0
300
3/32" = 1'-0"
140
0.09375
141
12.0
290
     0
  0
SCALE
  5
5E
102
{ACAD_REACTORS
330
47
102
}
330
47
100
AcDbScale
 70
     0
300
1/8" = 1'-0"
140
0.125
141
12.0
290
     0
  0
SCALE
  5
5F
102
{ACAD_REACTORS
330
47
102
}
330
47
100
AcDbScale
 70
     0
300
3/16" = 1'-0"
140
0.1875
141
12.0
290
     0
  0
SCALE
  5
60
102
{ACAD_REACTORS
330
47
102
}
330
47
100
AcDbScale
 70
     0
300
1/4" = 1'-0"
140
0.25
141
12.0
290
     0
  0
SCALE
  5
61
102
{ACAD_REACTORS
330
47
102
}
330
47
100
AcDbScale
 70
     0
300
3/8" = 1'-0"
140
0.375
141
12.0
290
     0
  0
SCALE
  5
62
102
{ACAD_REACTORS
330
47
102
}
330
47
100
AcDbScale
 70
     0
300
1/2" = 1'-0"
140
0.5
141
12.0
290
     0
  0
SCALE
  5
63
102
{ACAD_REACTORS
330
47
102
}
330
47
100
AcDbScale
 70
     0
300
3/4" = 1'-0"
140
0.75
141
12.0
290
     0
  0
SCALE
  5
64
102
{ACAD_REACTORS
330
47
102
}
330
47
100
AcDbScale
 70
     0
300
1" = 1'-0"
140
1.0
141
12.0
290
     0
  0
SCALE
  5
65
102
{ACAD_REACTORS
330
47
102
}
330
47
100
AcDbScale
 70
     0
300
1-1/2" = 1'-0"
140
1.5
141
12.0
290
     0
  0
SCALE
  5
66
102
{ACAD_REACTORS
330
47
102
}
330
47
100
AcDbScale
 70
     0
300
3" = 1'-0"
140
3.0
141
12.0
290
     0
  0
SCALE
  5
67
102
{ACAD_REACTORS
330
47
102
}
330
47
100
AcDbScale
 70
     0
300
6" = 1'-0"
140
6.0
141
12.0
290
     0
  0
SCALE
  5
68
102
{ACAD_REACTORS
330
47
102
}
330
47
100
AcDbScale
 70
     0
300
1'-0" = 1'-0"
140
12.0
141
12.0
290
     0
  0
TABLESTYLE
  5
6A
102
{ACAD_REACTORS
330
69
102
}
102
{ACAD_XDICTIONARY
360
527
102
}
330
69
100
AcDbTableStyle
  3
Standard
 70
     0
 71
     0
 40
0.06
 41
0.06
280
     0
281
     0
  7
Standard
140
0.18
170
     2
 62
     0
 63
   257
283
     0
 90
        4
 91
        0
  1

274
    -2
284
     1
 64
     0
275
    -2
285
     1
 65
     0
276
    -2
286
     1
 66
     0
277
    -2
287
     1
 67
     0
278
    -2
288
     1
 68
     0
279
    -2
289
     1
 69
     0
  7
Standard
140
0.25
170
     5
 62
     0
 63
   257
283
     0
 90
        4
 91
        0
  1

274
    -2
284
     1
 64
     0
275
    -2
285
     1
 65
     0
276
    -2
286
     1
 66
     0
277
    -2
287
     1
 67
     0
278
    -2
288
     1
 68
     0
279
    -2
289
     1
 69
     0
  7
Standard
140
0.18
170
     5
 62
     0
 63
   257
283
     0
 90
        4
 91
        0
  1

274
    -2
284
     1
 64
     0
275
    -2
285
     1
 65
     0
276
    -2
286
     1
 66
     0
277
    -2
287
     1
 67
     0
278
    -2
288
     1
 68
     0
279
    -2
289
     1
 69
     0
  0
VISUALSTYLE
  5
2F
102
{ACAD_REACTORS
330
2A
102
}
330
2A
100
AcDbVisualStyle
  2
2dWireframe
 70
     4
177
     3
291
     0
 70
    58
 90
        0
176
     1
 90
        2
176
     1
 90
        0
176
     1
 90
        0
176
     1
 40
0.6
176
     1
 40
30.0
176
     1
 62
     7
420
 16777215
176
     1
 90
        1
176
     1
 90
        4
176
     1
 62
     7
176
     1
 62
   257
176
     1
 90
        1
176
     1
 90
        1
176
     1
 40
1.0
176
     1
 90
        0
176
     1
 62
   257
176
     1
 40
1.0
176
     1
 90
        1
176
     1
 90
        6
176
     1
 90
        2
176
     1
 62
     7
176
     1
 90
        5
176
     1
 90
        0
176
     1
 90
        0
176
     1
290
     0
176
     1
 90
        1
176
     1
 40
0.0
176
     1
 90
        0
176
     1
290
     1
176
     1
290
     1
176
     1
290
     0
176
     1
290
     0
176
     1
290
     0
176
     1
290
     0
176
     1
290
     0
176
     1
290
     0
176
     1
290
     0
176
     1
 90
       50
176
     1
 40
0.0
176
     1
 40
1.0
176
     1
 90
        0
176
     1
 62
    18
420
        0
176
     1
 90
       50
176
     1
 90
        3
176
     1
 62
     5
420
      255
176
     1
290
     0
176
     1
 90
       50
176
     1
 90
       50
176
     1
 90
       50
176
     1
290
     0
176
     1
 90
       50
176
     1
 62
   256
176
     0
 40
1.0
176
     0
 90
        2
176
     1
  1
strokes_ogs.tif
176
     1
290
     0
176
     1
 40
1.0
176
     1
 40
1.0
176
     1
  0
VISUALSTYLE
  5
32
102
{ACAD_REACTORS
330
2A
102
}
330
2A
100
AcDbVisualStyle
  2
Basic
 70
     7
177
     3
291
     1
 70
    58
 90
        1
176
     1
 90
        0
176
     1
 90
        1
176
     1
 90
        0
176
     1
 40
0.6
176
     1
 40
30.0
176
     1
 62
     7
420
 16777215
176
     1
 90
        0
176
     1
 90
        4
176
     1
 62
     7
176
     1
 62
   257
176
     1
 90
        1
176
     1
 90
        1
176
     1
 40
1.0
176
     1
 90
        8
176
     1
 62
     7
176
     1
 40
1.0
176
     1
 90
        1
176
     1
 90
        6
176
     1
 90
        2
176
     1
 62
     7
176
     1
 90
        5
176
     1
 90
        0
176
     1
 90
        0
176
     1
290
     0
176
     1
 90
        1
176
     1
 40
0.0
176
     1
 90
        0
176
     1
290
     0
176
     1
290
     1
176
     1
290
     1
176
     1
290
     0
176
     1
290
     0
176
     1
290
     0
176
     1
290
     0
176
     1
290
     0
176
     1
290
     0
176
     1
 90
       50
176
     1
 40
0.0
176
     1
 40
1.0
176
     1
 90
        0
176
     1
 62
    18
420
        0
176
     1
 90
       50
176
     1
 90
        3
176
     1
 62
     5
420
      255
176
     1
290
     0
176
     1
 90
       50
176
     1
 90
       50
176
     1
 90
       50
176
     1
290
     0
176
     1
 90
       50
176
     1
 62
   256
176
     0
 40
1.0
176
     0
 90
        2
176
     1
  1
strokes_ogs.tif
176
     1
290
     0
176
     1
 40
1.0
176
     1
 40
1.0
176
     1
  0
VISUALSTYLE
  5
36
102
{ACAD_REACTORS
330
2A
102
}
330
2A
100
AcDbVisualStyle
  2
Brighten
 70
    12
177
     3
291
     1
 70
    58
 90
        2
176
     1
 90
        2
176
     1
 90
        0
176
     1
 90
        0
176
     1
 40
0.6
176
     1
 40
30.0
176
     1
 62
     7
420
 16777215
176
     1
 90
        1
176
     1
 90
        4
176
     1
 62
     7
176
     1
 62
   257
176
     1
 90
        1
176
     1
 90
        1
176
     1
 40
1.0
176
     1
 90
        8
176
     1
 62
     7
176
     1
 40
1.0
176
     1
 90
        1
176
     1
 90
        6
176
     1
 90
        2
176
     1
 62
     7
176
     1
 90
        5
176
     1
 90
        0
176
     1
 90
        0
176
     1
290
     0
176
     1
 90
        1
176
     1
 40
50.0
176
     1
 90
        0
176
     1
290
     0
176
     1
290
     1
176
     1
290
     1
176
     1
290
     0
176
     1
290
     0
176
     1
290
     0
176
     1
290
     0
176
     1
290
     0
176
     1
290
     0
176
     1
 90
       50
176
     1
 40
0.0
176
     1
 40
1.0
176
     1
 90
        0
176
     1
 62
    18
420
        0
176
     1
 90
       50
176
     1
 90
        3
176
     1
 62
     5
420
      255
176
     1
290
     0
176
     1
 90
       50
176
     1
 90
       50
176
     1
 90
       50
176
     1
290
     0
176
     1
 90
       50
176
     1
 62
   256
176
     0
 40
1.0
176
     0
 90
        2
176
     1
  1
strokes_ogs.tif
176
     1
290
     0
176
     1
 40
1.0
176
     1
 40
1.0
176
     1
  0
VISUALSTYLE
  5
3A
102
{ACAD_REACTORS
330
2A
102
}
330
2A
100
AcDbVisualStyle
  2
ColorChange
 70
    16
177
     3
291
     1
 70
    58
 90
        2
176
     1
 90
        2
176
     1
 90
        3
176
     1
 90
        0
176
     1
 40
0.6
176
     1
 40
30.0
176
     1
 62
     8
420
  8421504
176
     1
 90
        1
176
     1
 90
        4
176
     1
 62
     7
176
     1
 62
   257
176
     1
 90
        1
176
     1
 90
        1
176
     1
 40
1.0
176
     1
 90
        8
176
     1
 62
     8
420
  8421504
176
     1
 40
1.0
176
     1
 90
        1
176
     1
 90
        6
176
     1
 90
        2
176
     1
 62
     7
176
     1
 90
        5
176
     1
 90
        0
176
     1
 90
        0
176
     1
290
     0
176
     1
 90
        1
176
     1
 40
0.0
176
     1
 90
        0
176
     1
290
     0
176
     1
290
     1
176
     1
290
     1
176
     1
290
     0
176
     1
290
     0
176
     1
290
     0
176
     1
290
     0
176
     1
290
     0
176
     1
290
     0
176
     1
 90
       50
176
     1
 40
0.0
176
     1
 40
1.0
176
     1
 90
        0
176
     1
 62
    18
420
        0
176
     1
 90
       50
176
     1
 90
        3
176
     1
 62
     5
420
      255
176
     1
290
     0
176
     1
 90
       50
176
     1
 90
       50
176
     1
 90
       50
176
     1
290
     0
176
     1
 90
       50
176
     1
 62
   256
176
     0
 40
1.0
176
     0
 90
        2
176
     1
  1
strokes_ogs.tif
176
     1
290
     0
176
     1
 40
1.0
176
     1
 40
1.0
176
     1
  0
VISUALSTYLE
  5
34
102
{ACAD_REACTORS
330
2A
102
}
330
2A
100
AcDbVisualStyle
  2
Conceptual
 70
     9
177
     3
291
     0
 70
    58
 90
        3
176
     1
 90
        2
176
     1
 90
        0
176
     1
 90
        0
176
     1
 40
0.6
176
     1
 40
30.0
176
     1
 62
     7
420
 16777215
176
     1
 90
        2
176
     1
 90
        2
176
     1
 62
     7
176
     1
 62
   257
176
     1
 90
        1
176
     1
 90
        1
176
     1
 40
179.0
176
     1
 90
        8
176
     1
 62
     7
176
     1
 40
1.0
176
     1
 90
        1
176
     1
 90
        6
176
     1
 90
        2
176
     1
 62
     7
176
     1
 90
        3
176
     1
 90
        0
176
     1
 90
        0
176
     1
290
     0
176
     1
 90
        1
176
     1
 40
0.0
176
     1
 90
        0
176
     1
290
     0
176
     1
290
     1
176
     1
290
     1
176
     1
290
     0
176
     1
290
     0
176
     1
290
     0
176
     1
290
     0
176
     1
290
     0
176
     1
290
     0
176
     1
 90
       50
176
     1
 40
0.0
176
     1
 40
1.0
176
     1
 90
        0
176
     1
 62
    18
420
        0
176
     1
 90
       50
176
     1
 90
        3
176
     1
 62
     5
420
      255
176
     1
290
     0
176
     1
 90
       50
176
     1
 90
       50
176
     1
 90
       50
176
     1
290
     0
176
     1
 90
       50
176
     1
 62
   256
176
     0
 40
1.0
176
     0
 90
        2
176
     1
  1
strokes_ogs.tif
176
     1
290
     0
176
     1
 40
1.0
176
     1
 40
1.0
176
     1
  0
VISUALSTYLE
  5
35
102
{ACAD_REACTORS
330
2A
102
}
330
2A
100
AcDbVisualStyle
  2
Dim
 70
    11
177
     3
291
     1
 70
    58
 90
        2
176
     1
 90
        2
176
     1
 90
        0
176
     1
 90
        0
176
     1
 40
0.6
176
     1
 40
30.0
176
     1
 62
     7
420
 16777215
176
     1
 90
        1
176
     1
 90
        4
176
     1
 62
     7
176
     1
 62
   257
176
     1
 90
        1
176
     1
 90
        1
176
     1
 40
1.0
176
     1
 90
        8
176
     1
 62
     7
176
     1
 40
1.0
176
     1
 90
        1
176
     1
 90
        6
176
     1
 90
        2
176
     1
 62
     7
176
     1
 90
        5
176
     1
 90
        0
176
     1
 90
        0
176
     1
290
     0
176
     1
 90
        1
176
     1
 40
-50.0
176
     1
 90
        0
176
     1
290
     0
176
     1
290
     1
176
     1
290
     1
176
     1
290
     0
176
     1
290
     0
176
     1
290
     0
176
     1
290
     0
176
     1
290
     0
176
     1
290
     0
176
     1
 90
       50
176
     1
 40
0.0
176
     1
 40
1.0
176
     1
 90
        0
176
     1
 62
    18
420
        0
176
     1
 90
       50
176
     1
 90
        3
176
     1
 62
     5
420
      255
176
     1
290
     0
176
     1
 90
       50
176
     1
 90
       50
176
     1
 90
       50
176
     1
290
     0
176
     1
 90
       50
176
     1
 62
   256
176
     0
 40
1.0
176
     0
 90
        2
176
     1
  1
strokes_ogs.tif
176
     1
290
     0
176
     1
 40
1.0
176
     1
 40
1.0
176
     1
  0
VISUALSTYLE
  5
3D
102
{ACAD_REACTORS
330
2A
102
}
330
2A
100
AcDbVisualStyle
  2
EdgeColorOff
 70
    22
177
     3
291
     1
 70
    58
 90
        2
176
     0
 90
        2
176
     0
 90
        0
176
     0
 90
        0
176
     0
 40
0.6
176
     0
 40
30.0
176
     0
 62
     7
420
 16777215
176
     0
 90
        1
176
     0
 90
        4
176
     0
 62
     7
176
     0
 62
   257
176
     0
 90
        1
176
     0
 90
        1
176
     0
 40
1.0
176
     0
 90
        8
176
     2
 62
     7
176
     0
 40
1.0
176
     0
 90
        1
176
     0
 90
        6
176
     0
 90
        2
176
     0
 62
     7
176
     0
 90
        5
176
     0
 90
        0
176
     0
 90
        0
176
     0
290
     0
176
     0
 90
        1
176
     0
 40
0.0
176
     0
 90
        0
176
     0
290
     0
176
     0
290
     1
176
     0
290
     1
176
     0
290
     0
176
     0
290
     0
176
     0
290
     0
176
     0
290
     0
176
     0
290
     0
176
     0
290
     0
176
     0
 90
       50
176
     0
 40
0.0
176
     0
 40
1.0
176
     0
 90
        0
176
     0
 62
    18
420
        0
176
     0
 90
       50
176
     0
 90
        3
176
     0
 62
     5
420
      255
176
     0
290
     0
176
     0
 90
       50
176
     0
 90
       50
176
     0
 90
       50
176
     0
290
     0
176
     0
 90
       50
176
     0
 62
   256
176
     0
 40
1.0
176
     0
 90
        2
176
     0
  1
strokes_ogs.tif
176
     0
290
     0
176
     0
 40
1.0
176
     0
 40
1.0
176
     0
  0
VISUALSTYLE
  5
39
102
{ACAD_REACTORS
330
2A
102
}
330
2A
100
AcDbVisualStyle
  2
Facepattern
 70
    15
177
     3
291
     1
 70
    58
 90
        2
176
     1
 90
        2
176
     1
 90
        0
176
     1
 90
        0
176
     1
 40
0.6
176
     1
 40
30.0
176
     1
 62
     7
420
 16777215
176
     1
 90
        1
176
     1
 90
        4
176
     1
 62
     7
176
     1
 62
   257
176
     1
 90
        1
176
     1
 90
        1
176
     1
 40
1.0
176
     1
 90
        8
176
     1
 62
     7
176
     1
 40
1.0
176
     1
 90
        1
176
     1
 90
        6
176
     1
 90
        2
176
     1
 62
     7
176
     1
 90
        5
176
     1
 90
        0
176
     1
 90
        0
176
     1
290
     0
176
     1
 90
        1
176
     1
 40
0.0
176
     1
 90
        0
176
     1
290
     0
176
     1
290
     1
176
     1
290
     1
176
     1
290
     0
176
     1
290
     0
176
     1
290
     0
176
     1
290
     0
176
     1
290
     0
176
     1
290
     0
176
     1
 90
       50
176
     1
 40
0.0
176
     1
 40
1.0
176
     1
 90
        0
176
     1
 62
    18
420
        0
176
     1
 90
       50
176
     1
 90
        3
176
     1
 62
     5
420
      255
176
     1
290
     0
176
     1
 90
       50
176
     1
 90
       50
176
     1
 90
       50
176
     1
290
     0
176
     1
 90
       50
176
     1
 62
   256
176
     0
 40
1.0
176
     0
 90
        2
176
     1
  1
strokes_ogs.tif
176
     1
290
     0
176
     1
 40
1.0
176
     1
 40
1.0
176
     1
  0
VISUALSTYLE
  5
2B
102
{ACAD_REACTORS
330
2A
102
}
330
2A
100
AcDbVisualStyle
  2
Flat
 70
     0
177
     3
291
     1
 70
    58
 90
        2
176
     1
 90
        1
176
     1
 90
        1
176
     1
 90
        2
176
     1
 40
0.6
176
     1
 40
30.0
176
     1
 62
     7
420
 16777215
176
     1
 90
        0
176
     1
 90
        0
176
     1
 62
     7
176
     1
 62
   257
176
     1
 90
        1
176
     1
 90
        1
176
     1
 40
1.0
176
     1
 90
        8
176
     1
 62
     7
176
     1
 40
1.0
176
     1
 90
        1
176
     1
 90
        6
176
     1
 90
        2
176
     1
 62
     7
176
     1
 90
        5
176
     1
 90
        0
176
     1
 90
        0
176
     1
290
     0
176
     1
 90
       13
176
     1
 40
0.0
176
     1
 90
        0
176
     1
290
     0
176
     1
290
     1
176
     1
290
     1
176
     1
290
     0
176
     1
290
     0
176
     1
290
     0
176
     1
290
     0
176
     1
290
     0
176
     1
290
     0
176
     1
 90
       50
176
     1
 40
0.0
176
     1
 40
1.0
176
     1
 90
        0
176
     1
 62
    18
420
        0
176
     1
 90
       50
176
     1
 90
        3
176
     1
 62
     5
420
      255
176
     1
290
     0
176
     1
 90
       50
176
     1
 90
       50
176
     1
 90
       50
176
     1
290
     0
176
     1
 90
       50
176
     1
 62
   256
176
     0
 40
1.0
176
     0
 90
        2
176
     1
  1
strokes_ogs.tif
176
     1
290
     0
176
     1
 40
1.0
176
     1
 40
1.0
176
     1
  0
VISUALSTYLE
  5
2C
102
{ACAD_REACTORS
330
2A
102
}
330
2A
100
AcDbVisualStyle
  2
FlatWithEdges
 70
     1
177
     3
291
     1
 70
    58
 90
        2
176
     1
 90
        1
176
     1
 90
        1
176
     1
 90
        2
176
     1
 40
0.6
176
     1
 40
30.0
176
     1
 62
     7
420
 16777215
176
     1
 90
        1
176
     1
 90
        0
176
     1
 62
     7
176
     1
 62
   257
176
     1
 90
        1
176
     1
 90
        1
176
     1
 40
1.0
176
     1
 90
        0
176
     1
 62
   257
176
     1
 40
1.0
176
     1
 90
        1
176
     1
 90
        6
176
     1
 90
        2
176
     1
 62
     7
176
     1
 90
        5
176
     1
 90
        0
176
     1
 90
        0
176
     1
290
     0
176
     1
 90
       13
176
     1
 40
0.0
176
     1
 90
        0
176
     1
290
     0
176
     1
290
     1
176
     1
290
     1
176
     1
290
     0
176
     1
290
     0
176
     1
290
     0
176
     1
290
     0
176
     1
290
     0
176
     1
290
     0
176
     1
 90
       50
176
     1
 40
0.0
176
     1
 40
1.0
176
     1
 90
        0
176
     1
 62
    18
420
        0
176
     1
 90
       50
176
     1
 90
        3
176
     1
 62
     5
420
      255
176
     1
290
     0
176
     1
 90
       50
176
     1
 90
       50
176
     1
 90
       50
176
     1
290
     0
176
     1
 90
       50
176
     1
 62
   256
176
     0
 40
1.0
176
     0
 90
        2
176
     1
  1
strokes_ogs.tif
176
     1
290
     0
176
     1
 40
1.0
176
     1
 40
1.0
176
     1
  0
VISUALSTYLE
  5
2D
102
{ACAD_REACTORS
330
2A
102
}
330
2A
100
AcDbVisualStyle
  2
Gouraud
 70
     2
177
     3
291
     1
 70
    58
 90
        2
176
     1
 90
        2
176
     1
 90
        1
176
     1
 90
        2
176
     1
 40
0.6
176
     1
 40
30.0
176
     1
 62
     7
420
 16777215
176
     1
 90
        0
176
     1
 90
        0
176
     1
 62
     7
176
     1
 62
   257
176
     1
 90
        1
176
     1
 90
        1
176
     1
 40
1.0
176
     1
 90
        0
176
     1
 62
     7
176
     1
 40
1.0
176
     1
 90
        1
176
     1
 90
        6
176
     1
 90
        2
176
     1
 62
     7
176
     1
 90
        5
176
     1
 90
        0
176
     1
 90
        0
176
     1
290
     0
176
     1
 90
       13
176
     1
 40
0.0
176
     1
 90
        0
176
     1
290
     0
176
     1
290
     1
176
     1
290
     1
176
     1
290
     0
176
     1
290
     0
176
     1
290
     0
176
     1
290
     0
176
     1
290
     0
176
     1
290
     0
176
     1
 90
       50
176
     1
 40
0.0
176
     1
 40
1.0
176
     1
 90
        0
176
     1
 62
    18
420
        0
176
     1
 90
       50
176
     1
 90
        3
176
     1
 62
     5
420
      255
176
     1
290
     0
176
     1
 90
       50
176
     1
 90
       50
176
     1
 90
       50
176
     1
290
     0
176
     1
 90
       50
176
     1
 62
   256
176
     0
 40
1.0
176
     0
 90
        2
176
     1
  1
strokes_ogs.tif
176
     1
290
     0
176
     1
 40
1.0
176
     1
 40
1.0
176
     1
  0
VISUALSTYLE
  5
2E
102
{ACAD_REACTORS
330
2A
102
}
330
2A
100
AcDbVisualStyle
  2
GouraudWithEdges
 70
     3
177
     3
291
     1
 70
    58
 90
        2
176
     1
 90
        2
176
     1
 90
        1
176
     1
 90
        2
176
     1
 40
0.6
176
     1
 40
30.0
176
     1
 62
     7
420
 16777215
176
     1
 90
        1
176
     1
 90
        0
176
     1
 62
     7
176
     1
 62
   257
176
     1
 90
        1
176
     1
 90
        1
176
     1
 40
1.0
176
     1
 90
        0
176
     1
 62
   257
176
     1
 40
1.0
176
     1
 90
        1
176
     1
 90
        6
176
     1
 90
        2
176
     1
 62
     7
176
     1
 90
        5
176
     1
 90
        0
176
     1
 90
        0
176
     1
290
     0
176
     1
 90
       13
176
     1
 40
0.0
176
     1
 90
        0
176
     1
290
     0
176
     1
290
     1
176
     1
290
     1
176
     1
290
     0
176
     1
290
     0
176
     1
290
     0
176
     1
290
     0
176
     1
290
     0
176
     1
290
     0
176
     1
 90
       50
176
     1
 40
0.0
176
     1
 40
1.0
176
     1
 90
        0
176
     1
 62
    18
420
        0
176
     1
 90
       50
176
     1
 90
        3
176
     1
 62
     5
420
      255
176
     1
290
     0
176
     1
 90
       50
176
     1
 90
       50
176
     1
 90
       50
176
     1
290
     0
176
     1
 90
       50
176
     1
 62
   256
176
     0
 40
1.0
176
     0
 90
        2
176
     1
  1
strokes_ogs.tif
176
     1
290
     0
176
     1
 40
1.0
176
     1
 40
1.0
176
     1
  0
VISUALSTYLE
  5
31
102
{ACAD_REACTORS
330
2A
102
}
330
2A
100
AcDbVisualStyle
  2
Hidden
 70
     6
177
     3
291
     0
 70
    58
 90
        1
176
     1
 90
        2
176
     1
 90
        2
176
     1
 90
        0
176
     1
 40
0.6
176
     1
 40
30.0
176
     1
 62
     7
420
 16777215
176
     1
 90
        2
176
     1
 90
        2
176
     1
 62
     7
176
     1
 62
   257
176
     1
 90
        2
176
     1
 90
        1
176
     1
 40
40.0
176
     1
 90
        0
176
     1
 62
   257
176
     1
 40
1.0
176
     1
 90
        1
176
     1
 90
        6
176
     1
 90
        2
176
     1
 62
     7
176
     1
 90
        3
176
     1
 90
        0
176
     1
 90
        0
176
     1
290
     0
176
     1
 90
        1
176
     1
 40
0.0
176
     1
 90
        0
176
     1
290
     0
176
     1
290
     1
176
     1
290
     1
176
     1
290
     0
176
     1
290
     0
176
     1
290
     0
176
     1
290
     0
176
     1
290
     0
176
     1
290
     0
176
     1
 90
       50
176
     1
 40
0.0
176
     1
 40
1.0
176
     1
 90
        0
176
     1
 62
    18
420
        0
176
     1
 90
       50
176
     1
 90
        3
176
     1
 62
     5
420
      255
176
     1
290
     0
176
     1
 90
       50
176
     1
 90
       50
176
     1
 90
       50
176
     1
290
     0
176
     1
 90
       50
176
     1
 62
   256
176
     0
 40
1.0
176
     0
 90
        2
176
     1
  1
strokes_ogs.tif
176
     1
290
     0
176
     1
 40
1.0
176
     1
 40
1.0
176
     1
  0
VISUALSTYLE
  5
3B
102
{ACAD_REACTORS
330
2A
102
}
330
2A
100
AcDbVisualStyle
  2
JitterOff
 70
    20
177
     3
291
     1
 70
    58
 90
        2
176
     0
 90
        2
176
     0
 90
        0
176
     0
 90
        0
176
     0
 40
0.6
176
     0
 40
30.0
176
     0
 62
     7
420
 16777215
176
     0
 90
        1
176
     0
 90
        4
176
     0
 62
     7
176
     0
 62
   257
176
     0
 90
        1
176
     0
 90
        1
176
     0
 40
1.0
176
     0
 90
       10
176
     2
 62
     7
176
     0
 40
1.0
176
     0
 90
        1
176
     0
 90
        6
176
     0
 90
        2
176
     0
 62
     7
176
     0
 90
        5
176
     0
 90
        0
176
     0
 90
        0
176
     0
290
     0
176
     0
 90
        1
176
     0
 40
0.0
176
     0
 90
        0
176
     0
290
     0
176
     0
290
     1
176
     0
290
     1
176
     0
290
     0
176
     0
290
     0
176
     0
290
     0
176
     0
290
     0
176
     0
290
     0
176
     0
290
     0
176
     0
 90
       50
176
     0
 40
0.0
176
     0
 40
1.0
176
     0
 90
        0
176
     0
 62
    18
420
        0
176
     0
 90
       50
176
     0
 90
        3
176
     0
 62
     5
420
      255
176
     0
290
     0
176
     0
 90
       50
176
     0
 90
       50
176
     0
 90
       50
176
     0
290
     0
176
     0
 90
       50
176
     0
 62
   256
176
     0
 40
1.0
176
     0
 90
        2
176
     0
  1
strokes_ogs.tif
176
     0
290
     0
176
     0
 40
1.0
176
     0
 40
1.0
176
     0
  0
VISUALSTYLE
  5
38
102
{ACAD_REACTORS
330
2A
102
}
330
2A
100
AcDbVisualStyle
  2
Linepattern
 70
    14
177
     3
291
     1
 70
    58
 90
        2
176
     1
 90
        2
176
     1
 90
        0
176
     1
 90
        0
176
     1
 40
0.6
176
     1
 40
30.0
176
     1
 62
     7
420
 16777215
176
     1
 90
        1
176
     1
 90
        4
176
     1
 62
     7
176
     1
 62
   257
176
     1
 90
        7
176
     1
 90
        7
176
     1
 40
1.0
176
     1
 90
        8
176
     1
 62
     7
176
     1
 40
1.0
176
     1
 90
        1
176
     1
 90
        6
176
     1
 90
        2
176
     1
 62
     7
176
     1
 90
        5
176
     1
 90
        0
176
     1
 90
        0
176
     1
290
     0
176
     1
 90
        1
176
     1
 40
0.0
176
     1
 90
        0
176
     1
290
     0
176
     1
290
     1
176
     1
290
     1
176
     1
290
     0
176
     1
290
     0
176
     1
290
     0
176
     1
290
     0
176
     1
290
     0
176
     1
290
     0
176
     1
 90
       50
176
     1
 40
0.0
176
     1
 40
1.0
176
     1
 90
        0
176
     1
 62
    18
420
        0
176
     1
 90
       50
176
     1
 90
        3
176
     1
 62
     5
420
      255
176
     1
290
     0
176
     1
 90
       50
176
     1
 90
       50
176
     1
 90
       50
176
     1
290
     0
176
     1
 90
       50
176
     1
 62
   256
176
     0
 40
1.0
176
     0
 90
        2
176
     1
  1
strokes_ogs.tif
176
     1
290
     0
176
     1
 40
1.0
176
     1
 40
1.0
176
     1
  0
VISUALSTYLE
  5
3C
102
{ACAD_REACTORS
330
2A
102
}
330
2A
100
AcDbVisualStyle
  2
OverhangOff
 70
    21
177
     3
291
     1
 70
    58
 90
        2
176
     0
 90
        2
176
     0
 90
        0
176
     0
 90
        0
176
     0
 40
0.6
176
     0
 40
30.0
176
     0
 62
     7
420
 16777215
176
     0
 90
        1
176
     0
 90
        4
176
     0
 62
     7
176
     0
 62
   257
176
     0
 90
        1
176
     0
 90
        1
176
     0
 40
1.0
176
     0
 90
        9
176
     2
 62
     7
176
     0
 40
1.0
176
     0
 90
        1
176
     0
 90
        6
176
     0
 90
        2
176
     0
 62
     7
176
     0
 90
        5
176
     0
 90
        0
176
     0
 90
        0
176
     0
290
     0
176
     0
 90
        1
176
     0
 40
0.0
176
     0
 90
        0
176
     0
290
     0
176
     0
290
     1
176
     0
290
     1
176
     0
290
     0
176
     0
290
     0
176
     0
290
     0
176
     0
290
     0
176
     0
290
     0
176
     0
290
     0
176
     0
 90
       50
176
     0
 40
0.0
176
     0
 40
1.0
176
     0
 90
        0
176
     0
 62
    18
420
        0
176
     0
 90
       50
176
     0
 90
        3
176
     0
 62
     5
420
      255
176
     0
290
     0
176
     0
 90
       50
176
     0
 90
       50
176
     0
 90
       50
176
     0
290
     0
176
     0
 90
       50
176
     0
 62
   256
176
     0
 40
1.0
176
     0
 90
        2
176
     0
  1
strokes_ogs.tif
176
     0
290
     0
176
     0
 40
1.0
176
     0
 40
1.0
176
     0
  0
VISUALSTYLE
  5
33
102
{ACAD_REACTORS
330
2A
102
}
330
2A
100
AcDbVisualStyle
  2
Realistic
 70
     8
177
     3
291
     0
 70
    58
 90
        2
176
     1
 90
        3
176
     1
 90
        0
176
     1
 90
        2
176
     1
 40
0.6
176
     1
 40
30.0
176
     1
 62
     7
420
 16777215
176
     1
 90
        0
176
     1
 90
        0
176
     1
 62
     7
176
     1
 62
   257
176
     1
 90
        1
176
     1
 90
        1
176
     1
 40
1.0
176
     1
 90
        8
176
     1
 62
   257
176
     1
 40
1.0
176
     1
 90
        1
176
     1
 90
        6
176
     1
 90
        2
176
     1
 62
     7
176
     1
 90
        3
176
     1
 90
        0
176
     1
 90
        0
176
     1
290
     0
176
     1
 90
       13
176
     1
 40
0.0
176
     1
 90
        0
176
     1
290
     0
176
     1
290
     1
176
     1
290
     1
176
     1
290
     0
176
     1
290
     0
176
     1
290
     0
176
     1
290
     0
176
     1
290
     0
176
     1
290
     0
176
     1
 90
       50
176
     1
 40
0.0
176
     1
 40
1.0
176
     1
 90
        0
176
     1
 62
    18
420
        0
176
     1
 90
       50
176
     1
 90
        3
176
     1
 62
     5
420
      255
176
     1
290
     0
176
     1
 90
       50
176
     1
 90
       50
176
     1
 90
       50
176
     1
290
     0
176
     1
 90
       50
176
     1
 62
   256
176
     0
 40
1.0
176
     0
 90
        2
176
     1
  1
strokes_ogs.tif
176
     1
290
     0
176
     1
 40
1.0
176
     1
 40
1.0
176
     1
  0
VISUALSTYLE
  5
42
102
{ACAD_REACTORS
330
2A
102
}
330
2A
100
AcDbVisualStyle
  2
Shaded
 70
    27
177
     3
291
     0
 70
    58
 90
        2
176
     1
 90
        2
176
     1
 90
        1
176
     1
 90
        2
176
     1
 40
0.6
176
     1
 40
30.0
176
     1
 62
     7
420
 16777215
176
     1
 90
        0
176
     1
 90
        4
176
     1
 62
     7
176
     1
 62
   257
176
     1
 90
        1
176
     1
 90
        1
176
     1
 40
1.0
176
     1
 90
        8
176
     1
 62
   257
176
     1
 40
1.0
176
     1
 90
        1
176
     1
 90
        6
176
     1
 90
        2
176
     1
 62
     8
420
  7895160
176
     1
 90
        3
176
     1
 90
        0
176
     1
 90
        0
176
     1
290
     0
176
     1
 90
        5
176
     1
 40
0.0
176
     1
 90
        0
176
     1
290
     0
176
     1
290
     1
176
     1
290
     1
176
     1
290
     0
176
     1
290
     0
176
     1
290
     0
176
     1
290
     0
176
     1
290
     0
176
     1
290
     0
176
     1
 90
       50
176
     1
 40
0.0
176
     1
 40
1.0
176
     1
 90
        0
176
     1
 62
    18
420
        0
176
     1
 90
       50
176
     1
 90
        3
176
     1
 62
     5
420
      255
176
     1
290
     0
176
     1
 90
       50
176
     1
 90
       50
176
     1
 90
       50
176
     1
290
     0
176
     1
 90
       50
176
     1
 62
   256
176
     0
 40
1.0
176
     0
 90
        2
176
     1
  1
strokes_ogs.tif
176
     1
290
     0
176
     1
 40
1.0
176
     1
 40
1.0
176
     1
  0
VISUALSTYLE
  5
41
102
{ACAD_REACTORS
330
2A
102
}
330
2A
100
AcDbVisualStyle
  2
Shaded with edges
 70
    26
177
     3
291
     0
 70
    58
 90
        2
176
     1
 90
        2
176
     1
 90
        1
176
     1
 90
        2
176
     1
 40
0.6
176
     1
 40
30.0
176
     1
 62
     7
420
 16777215
176
     1
 90
        1
176
     1
 90
       10
176
     1
 62
     7
176
     1
 62
   257
176
     1
 90
        2
176
     1
 90
        1
176
     1
 40
1.0
176
     1
 90
        8
176
     1
 62
   257
176
     1
 40
1.0
176
     1
 90
        1
176
     1
 90
        6
176
     1
 90
        2
176
     1
 62
     7
176
     1
 90
        3
176
     1
 90
        0
176
     1
 90
        0
176
     1
290
     0
176
     1
 90
        5
176
     1
 40
0.0
176
     1
 90
        0
176
     1
290
     0
176
     1
290
     1
176
     1
290
     1
176
     1
290
     0
176
     1
290
     0
176
     1
290
     0
176
     1
290
     0
176
     1
290
     0
176
     1
290
     0
176
     1
 90
       50
176
     1
 40
0.0
176
     1
 40
1.0
176
     1
 90
        0
176
     1
 62
    18
420
        0
176
     1
 90
       50
176
     1
 90
        3
176
     1
 62
     5
420
      255
176
     1
290
     0
176
     1
 90
       50
176
     1
 90
       50
176
     1
 90
       50
176
     1
290
     0
176
     1
 90
       50
176
     1
 62
   256
176
     0
 40
1.0
176
     0
 90
        2
176
     1
  1
strokes_ogs.tif
176
     1
290
     0
176
     1
 40
1.0
176
     1
 40
1.0
176
     1
  0
VISUALSTYLE
  5
3E
102
{ACAD_REACTORS
330
2A
102
}
330
2A
100
AcDbVisualStyle
  2
Shades of Gray
 70
    23
177
     3
291
     0
 70
    58
 90
        2
176
     1
 90
        2
176
     1
 90
        3
176
     1
 90
        0
176
     1
 40
0.6
176
     1
 40
30.0
176
     1
 62
     7
420
 16777215
176
     1
 90
        2
176
     1
 90
        2
176
     1
 62
     7
176
     1
 62
     7
176
     1
 90
        1
176
     1
 90
        1
176
     1
 40
40.0
176
     1
 90
        8
176
     1
 62
     7
176
     1
 40
1.0
176
     1
 90
        1
176
     1
 90
        6
176
     1
 90
        2
176
     1
 62
     7
176
     1
 90
        3
176
     1
 90
        0
176
     1
 90
        0
176
     1
290
     0
176
     1
 90
        1
176
     1
 40
0.0
176
     1
 90
        0
176
     1
290
     0
176
     1
290
     1
176
     1
290
     1
176
     1
290
     0
176
     1
290
     0
176
     1
290
     0
176
     1
290
     0
176
     1
290
     0
176
     1
290
     0
176
     1
 90
       50
176
     1
 40
0.0
176
     1
 40
1.0
176
     1
 90
        0
176
     1
 62
    18
420
        0
176
     1
 90
       50
176
     1
 90
        3
176
     1
 62
     5
420
      255
176
     1
290
     0
176
     1
 90
       50
176
     1
 90
       50
176
     1
 90
       50
176
     1
290
     0
176
     1
 90
       50
176
     1
 62
   256
176
     0
 40
1.0
176
     0
 90
        2
176
     1
  1
strokes_ogs.tif
176
     1
290
     0
176
     1
 40
1.0
176
     1
 40
1.0
176
     1
  0
VISUALSTYLE
  5
3F
102
{ACAD_REACTORS
330
2A
102
}
330
2A
100
AcDbVisualStyle
  2
Sketchy
 70
    24
177
     3
291
     0
 70
    58
 90
        1
176
     1
 90
        2
176
     1
 90
        2
176
     1
 90
        0
176
     1
 40
0.6
176
     1
 40
30.0
176
     1
 62
     7
420
 16777215
176
     1
 90
        2
176
     1
 90
        2
176
     1
 62
     7
176
     1
 62
     7
176
     1
 90
        1
176
     1
 90
        1
176
     1
 40
40.0
176
     1
 90
       11
176
     1
 62
     7
176
     1
 40
1.0
176
     1
 90
        1
176
     1
 90
        6
176
     1
 90
        2
176
     1
 62
     7
176
     1
 90
        6
176
     1
 90
        0
176
     1
 90
        0
176
     1
290
     0
176
     1
 90
        1
176
     1
 40
0.0
176
     1
 90
        0
176
     1
290
     0
176
     1
290
     1
176
     1
290
     1
176
     1
290
     0
176
     1
290
     0
176
     1
290
     0
176
     1
290
     0
176
     1
290
     0
176
     1
290
     0
176
     1
 90
       50
176
     1
 40
0.0
176
     1
 40
1.0
176
     1
 90
        0
176
     1
 62
    18
420
        0
176
     1
 90
       50
176
     1
 90
        3
176
     1
 62
     5
420
      255
176
     1
290
     0
176
     1
 90
       50
176
     1
 90
       50
176
     1
 90
       50
176
     1
290
     0
176
     1
 90
       50
176
     1
 62
   256
176
     0
 40
1.0
176
     0
 90
        2
176
     1
  1
strokes_ogs.tif
176
     1
290
     0
176
     1
 40
1.0
176
     1
 40
1.0
176
     1
  0
VISUALSTYLE
  5
37
102
{ACAD_REACTORS
330
2A
102
}
330
2A
100
AcDbVisualStyle
  2
Thicken
 70
    13
177
     3
291
     1
 70
    58
 90
        2
176
     1
 90
        2
176
     1
 90
        0
176
     1
 90
        0
176
     1
 40
0.6
176
     1
 40
30.0
176
     1
 62
     7
420
 16777215
176
     1
 90
        1
176
     1
 90
        4
176
     1
 62
     7
176
     1
 62
   257
176
     1
 90
        1
176
     1
 90
        1
176
     1
 40
1.0
176
     1
 90
       12
176
     1
 62
     7
176
     1
 40
1.0
176
     1
 90
        1
176
     1
 90
        6
176
     1
 90
        2
176
     1
 62
     7
176
     1
 90
        5
176
     1
 90
        0
176
     1
 90
        0
176
     1
290
     0
176
     1
 90
        1
176
     1
 40
0.0
176
     1
 90
        0
176
     1
290
     0
176
     1
290
     1
176
     1
290
     1
176
     1
290
     0
176
     1
290
     0
176
     1
290
     0
176
     1
290
     0
176
     1
290
     0
176
     1
290
     0
176
     1
 90
       50
176
     1
 40
0.0
176
     1
 40
1.0
176
     1
 90
        0
176
     1
 62
    18
420
        0
176
     1
 90
       50
176
     1
 90
        3
176
     1
 62
     5
420
      255
176
     1
290
     0
176
     1
 90
       50
176
     1
 90
       50
176
     1
 90
       50
176
     1
290
     0
176
     1
 90
       50
176
     1
 62
   256
176
     0
 40
1.0
176
     0
 90
        2
176
     1
  1
strokes_ogs.tif
176
     1
290
     0
176
     1
 40
1.0
176
     1
 40
1.0
176
     1
  0
VISUALSTYLE
  5
30
102
{ACAD_REACTORS
330
2A
102
}
330
2A
100
AcDbVisualStyle
  2
Wireframe
 70
     5
177
     3
291
     0
 70
    58
 90
        0
176
     1
 90
        2
176
     1
 90
        0
176
     1
 90
        0
176
     1
 40
0.6
176
     1
 40
30.0
176
     1
 62
     7
420
 16777215
176
     1
 90
        1
176
     1
 90
        4
176
     1
 62
     7
176
     1
 62
   257
176
     1
 90
        1
176
     1
 90
        1
176
     1
 40
1.0
176
     1
 90
        0
176
     1
 62
   257
176
     1
 40
1.0
176
     1
 90
        1
176
     1
 90
        6
176
     1
 90
        2
176
     1
 62
     7
176
     1
 90
        3
176
     1
 90
        0
176
     1
 90
        0
176
     1
290
     0
176
     1
 90
        1
176
     1
 40
0.0
176
     1
 90
        0
176
     1
290
     0
176
     1
290
     1
176
     1
290
     1
176
     1
290
     0
176
     1
290
     0
176
     1
290
     0
176
     1
290
     0
176
     1
290
     0
176
     1
290
     0
176
     1
 90
       50
176
     1
 40
0.0
176
     1
 40
1.0
176
     1
 90
        0
176
     1
 62
    18
420
        0
176
     1
 90
       50
176
     1
 90
        3
176
     1
 62
     5
420
      255
176
     1
290
     0
176
     1
 90
       50
176
     1
 90
       50
176
     1
 90
       50
176
     1
290
     0
176
     1
 90
       50
176
     1
 62
   256
176
     0
 40
1.0
176
     0
 90
        2
176
     1
  1
strokes_ogs.tif
176
     1
290
     0
176
     1
 40
1.0
176
     1
 40
1.0
176
     1
  0
VISUALSTYLE
  5
40
102
{ACAD_REACTORS
330
2A
102
}
330
2A
100
AcDbVisualStyle
  2
X-Ray
 70
    25
177
     3
291
     0
 70
    58
 90
        2
176
     1
 90
        2
176
     1
 90
        1
176
     1
 90
        1
176
     1
 40
0.5
176
     1
 40
30.0
176
     1
 62
     7
420
 16777215
176
     1
 90
        1
176
     1
 90
        0
176
     1
 62
     7
176
     1
 62
   257
176
     1
 90
        1
176
     1
 90
        1
176
     1
 40
1.0
176
     1
 90
        8
176
     1
 62
     7
176
     1
 40
1.0
176
     1
 90
        1
176
     1
 90
        6
176
     1
 90
        2
176
     1
 62
     7
176
     1
 90
        3
176
     1
 90
        0
176
     1
 90
        0
176
     1
290
     0
176
     1
 90
       13
176
     1
 40
0.0
176
     1
 90
        0
176
     1
290
     0
176
     1
290
     1
176
     1
290
     1
176
     1
290
     0
176
     1
290
     0
176
     1
290
     0
176
     1
290
     0
176
     1
290
     0
176
     1
290
     0
176
     1
 90
       50
176
     1
 40
0.0
176
     1
 40
1.0
176
     1
 90
        0
176
     1
 62
    18
420
        0
176
     1
 90
       50
176
     1
 90
        3
176
     1
 62
     5
420
      255
176
     1
290
     0
176
     1
 90
       50
176
     1
 90
       50
176
     1
 90
       50
176
     1
290
     0
176
     1
 90
       50
176
     1
 62
   256
176
     0
 40
1.0
176
     0
 90
        2
176
     1
  1
strokes_ogs.tif
176
     1
290
     0
176
     1
 40
1.0
176
     1
 40
1.0
176
     1
  0
DICTIONARYVAR
  5
526
102
{ACAD_REACTORS
330
525
102
}
330
525
100
DictionaryVariables
280
     0
  1
1:1
  0
DICTIONARYVAR
  5
52B
102
{ACAD_REACTORS
330
525
102
}
330
525
100
DictionaryVariables
280
     0
  1
Standard
  0
DICTIONARYVAR
  5
52A
102
{ACAD_REACTORS
330
525
102
}
330
525
100
DictionaryVariables
280
     0
  1
Standard
  0
DICTIONARY
  5
527
330
6A
100
AcDbDictionary
280
     1
281
     1
  3
ACAD_ROUNDTRIP_2008_TABLESTYLE_CELLSTYLEMAP
360
528
  0
CELLSTYLEMAP
  5
528
102
{ACAD_REACTORS
330
527
102
}
330
527
100
AcDbCellStyleMap
 90
        3
300
CELLSTYLE
  1
TABLEFORMAT_BEGIN
 90
        5
170
     1
 91
        0
 92
    32768
 62
   257
 93
        1
300
CONTENTFORMAT
  1
CONTENTFORMAT_BEGIN
 90
        0
 91
        0
 92
        4
 93
        0
300

 40
0.0
140
1.0
 94
        5
 62
     0
340
11
144
0.25
309
CONTENTFORMAT_END
171
     1
301
MARGIN
  1
CELLMARGIN_BEGIN
 40
0.06
 40
0.06
 40
0.06
 40
0.06
 40
0.06
 40
0.06
309
CELLMARGIN_END
 94
        6
 95
        1
302
GRIDFORMAT
  1
GRIDFORMAT_BEGIN
 90
        0
 91
        1
 62
     0
 92
       -2
340
14
 93
        0
 40
0.045
309
GRIDFORMAT_END
 95
        2
302
GRIDFORMAT
  1
GRIDFORMAT_BEGIN
 90
        0
 91
        1
 62
     0
 92
       -2
340
14
 93
        0
 40
0.045
309
GRIDFORMAT_END
 95
        4
302
GRIDFORMAT
  1
GRIDFORMAT_BEGIN
 90
        0
 91
        1
 62
     0
 92
       -2
340
14
 93
        0
 40
0.045
309
GRIDFORMAT_END
 95
        8
302
GRIDFORMAT
  1
GRIDFORMAT_BEGIN
 90
        0
 91
        1
 62
     0
 92
       -2
340
14
 93
        0
 40
0.045
309
GRIDFORMAT_END
 95
       16
302
GRIDFORMAT
  1
GRIDFORMAT_BEGIN
 90
        0
 91
        1
 62
     0
 92
       -2
340
14
 93
        0
 40
0.045
309
GRIDFORMAT_END
 95
       32
302
GRIDFORMAT
  1
GRIDFORMAT_BEGIN
 90
        0
 91
        1
 62
     0
 92
       -2
340
14
 93
        0
 40
0.045
309
GRIDFORMAT_END
309
TABLEFORMAT_END
  1
CELLSTYLE_BEGIN
 90
        1
 91
        1
300
_TITLE
309
CELLSTYLE_END
300
CELLSTYLE
  1
TABLEFORMAT_BEGIN
 90
        5
170
     1
 91
        0
 92
        0
 62
   257
 93
        1
300
CONTENTFORMAT
  1
CONTENTFORMAT_BEGIN
 90
        0
 91
        0
 92
        4
 93
        0
300

 40
0.0
140
1.0
 94
        5
 62
     0
340
11
144
0.18
309
CONTENTFORMAT_END
171
     1
301
MARGIN
  1
CELLMARGIN_BEGIN
 40
0.06
 40
0.06
 40
0.06
 40
0.06
 40
0.06
 40
0.06
309
CELLMARGIN_END
 94
        6
 95
        1
302
GRIDFORMAT
  1
GRIDFORMAT_BEGIN
 90
        0
 91
        1
 62
     0
 92
       -2
340
14
 93
        0
 40
0.045
309
GRIDFORMAT_END
 95
        2
302
GRIDFORMAT
  1
GRIDFORMAT_BEGIN
 90
        0
 91
        1
 62
     0
 92
       -2
340
14
 93
        0
 40
0.045
309
GRIDFORMAT_END
 95
        4
302
GRIDFORMAT
  1
GRIDFORMAT_BEGIN
 90
        0
 91
        1
 62
     0
 92
       -2
340
14
 93
        0
 40
0.045
309
GRIDFORMAT_END
 95
        8
302
GRIDFORMAT
  1
GRIDFORMAT_BEGIN
 90
        0
 91
        1
 62
     0
 92
       -2
340
14
 93
        0
 40
0.045
309
GRIDFORMAT_END
 95
       16
302
GRIDFORMAT
  1
GRIDFORMAT_BEGIN
 90
        0
 91
        1
 62
     0
 92
       -2
340
14
 93
        0
 40
0.045
309
GRIDFORMAT_END
 95
       32
302
GRIDFORMAT
  1
GRIDFORMAT_BEGIN
 90
        0
 91
        1
 62
     0
 92
       -2
340
14
 93
        0
 40
0.045
309
GRIDFORMAT_END
309
TABLEFORMAT_END
  1
CELLSTYLE_BEGIN
 90
        2
 91
        1
300
_HEADER
309
CELLSTYLE_END
300
CELLSTYLE
  1
TABLEFORMAT_BEGIN
 90
        5
170
     1
 91
        0
 92
        0
 62
   257
 93
        1
300
CONTENTFORMAT
  1
CONTENTFORMAT_BEGIN
 90
        0
 91
        0
 92
        4
 93
        0
300

 40
0.0
140
1.0
 94
        2
 62
     0
340
11
144
0.18
309
CONTENTFORMAT_END
171
     1
301
MARGIN
  1
CELLMARGIN_BEGIN
 40
0.06
 40
0.06
 40
0.06
 40
0.06
 40
0.06
 40
0.06
309
CELLMARGIN_END
 94
        6
 95
        1
302
GRIDFORMAT
  1
GRIDFORMAT_BEGIN
 90
        0
 91
        1
 62
     0
 92
       -2
340
14
 93
        0
 40
0.045
309
GRIDFORMAT_END
 95
        2
302
GRIDFORMAT
  1
GRIDFORMAT_BEGIN
 90
        0
 91
        1
 62
     0
 92
       -2
340
14
 93
        0
 40
0.045
309
GRIDFORMAT_END
 95
        4
302
GRIDFORMAT
  1
GRIDFORMAT_BEGIN
 90
        0
 91
        1
 62
     0
 92
       -2
340
14
 93
        0
 40
0.045
309
GRIDFORMAT_END
 95
        8
302
GRIDFORMAT
  1
GRIDFORMAT_BEGIN
 90
        0
 91
        1
 62
     0
 92
       -2
340
14
 93
        0
 40
0.045
309
GRIDFORMAT_END
 95
       16
302
GRIDFORMAT
  1
GRIDFORMAT_BEGIN
 90
        0
 91
        1
 62
     0
 92
       -2
340
14
 93
        0
 40
0.045
309
GRIDFORMAT_END
 95
       32
302
GRIDFORMAT
  1
GRIDFORMAT_BEGIN
 90
        0
 91
        1
 62
     0
 92
       -2
340
14
 93
        0
 40
0.045
309
GRIDFORMAT_END
309
TABLEFORMAT_END
  1
CELLSTYLE_BEGIN
 90
        3
 91
        2
300
_DATA
309
CELLSTYLE_END
  0
ENDSEC
  0
EOF
